( )

A                                                   

 

o - pa

RIFF A
Am Em Am Em
1 |--------------|-------------|-----|--------------|-------------|-----|-
2 |-1------1-3-1-|-0-1-0-0-1-0-|-0-0-|-1------1-3-1-|-0-1-0-0-1-0-|-0-0-|-
3 |---2----------|-------------|-----|---2----------|-------------|-----|-
4 |-----2--------|-------------|-----|-----2--------|-------------|-----|-
5 |-0------0-0-0-|-2-2-2-2-2-2-|-0-0-|-0------0-0-0-|-2-2-2-2-2-2-|-0-0-|-
6 |--------------|-------------|-----|--------------|-------------|-----|-

C Am Em
1 |--------0-1-0---|---0-------0-----|-------------|-------------|-----|--
2 |-1------------0-|-3---3---3---3---|-1-----1-3-1-|-0-1-0-1-0-1-|-0-0-|--
3 |---0------------|-------0-------0-|---2---------|-------------|-----|--
4 |-----2----------|-----------------|-----2-------|-------------|-----|--
5 |-3--------------|-2-------2-------|-0-----0-0-0-|-2-2-2-2-2-2-|-0-0-|--
6 |----------------|-----------------|-------------|-------------|-----|--

-------
pa Riff A (2 paa)
-------

Am G Am
e oo, ce c, e opa ca,
G C
apa oce ypa aec pa.
G C G
apa coe cae oce ypa,
Am G
pe ype a,
Am
pe ype e -
G
a pa p ,
C
A apy - poa,
G
apa ye ae,
C G
o e ca.

pe:
Am
Ho ceac epe cya
G
e cea,
Am
oe e ycy,
G
yy o.
Am
epe,a ep,
G
apaa ee cea,
Am
oa ee e oo e
G
ycy y o.

-------
pa Riff A (2 paa)
-------

H oo, o, oa e,
Ee co a y poa cya,
o oe ce ao ye c.
oo a a ae paa oa,
oo a a ae ee ,
apa oe py ec,
A y .

pe

-------
pa Riff A (2 paa)
-------

Coo.
Am G Am G
e|-5------------------------5---------------------------
b|--5--5-7-5-3-5-3-3-5-3---5--5-7-5-3-5-3-3-5-3---------
g|----5-------------------------5-----------------------
d|------------------------------------------------------
a|------------------------------------------------------
e|------------------------------------------------------
Am G Am G
e|-8----------------------------5-----------------------
b|--8--8-10-8-5-3-5-3-3-5-3---5--5-7-5-3-5-3-3-5-3------
g|----9----------------------------5--------------------
d|------------------------------------------------------
a|------------------------------------------------------
e|------------------------------------------------------