( )

A                                                   

Intro:
G|-----------------------|
D|-----------------------|
A|--------10-10----------|
E|--12-12--------11--10--|

Verse:
G|--------------------|
D|--------------------|
A|--------10----------|
E|--12-12-----11--10--|

Ec o-o o-o o e xoe,
Ec o-o e oca aec,
yc o ye o cee oxooe,
oe o oce pa yaec.
e c pao o o a pecae,
yae e aoe cpax,
Eo ceo-aceo p coa oa:
\" o y!\"

o-o cae ce yee pyx -
ape ya eac.
epeco, o e o ye ea e x,
a a e o ye eac.
x, eay ax a o,
Cae, o o eo eeo oo,
oop o oo o cee oo,
x, a oop \"a oe o\".

A o a ca opo,
C o xpea, a o ocycye,
Cpay o, po opoo,
a, ee, ee pcycye.
, ec ye eoxoo,
O cae ceo e y \"y\",
A y e ec p coa oo ea:
\" oe y\"

Chorus: a Intro
e! - N pa

\"Co a ece py a ooy\"
Op e peop pa,
Ey aepo ac yapa ooy,
popee cpo oapa.
C ape oaco e eo,
O oe yap e c paaxy,
a o ye oepe coe eo
po ce oca eo a xy!