( )

A                                                   

intro:
Am F C E
1------------------------------------------------------------------------
2------------3---------1--------------------1-----------0----------------
3---------2----------2---2---------------0------------1---1--------------
4------2-----------3-------0/2--------2-------------2-------2------------ X8 PA
5---0------------3-----------------3--------------2----------------------
6------------------------------------------------------------------------
ye: poc oe:
Am F
Oa ope,
C E
C xo a ceep oo.
Am F
oae opoa,
C E
Pyeo ce o.
Am F
Oa eae ye
C E
yy eo a,
Am F
a, e o oa
C E
ca opao p...
pop:
Am F C E
1------------------------------------------------------------------------
2------------3---------1--------------------1-----------0----------------
3---------2----------2---2---------------0------------1---1--------------
4------2-----------3-------0/2--------2-------------2-------2------------ X4 PAA
5---0------------3-----------------3--------------2----------------------
6------------------------------------------------------------------------
opo ye paec oo a e, a ep.
Oa a ooa
o cpao apae ce,
e ax, a oa,
pa yce y,
e a apa e
e aax co,
e y poa
apcoax pa eo.
oeap, pls, here_to_stay@td.lv