( )

A                                                   

Intro, Verse, Chorus:
G|---------------------------|
D|---------------------------|
A|--3-3--3-------3-3--3---7--|
E|---------5------------5----|
a oox ecoa ea,
a a copx yop.
y e ea ea,
a pyoy oo a oop.
oo pa eae xoe,
O ceae op co,
Opea oo-o a o cpaa,
Oyca eo oce coa o.

Chorus:
o, oce coa o.

po o eoy cey a,
ac aoo cep eo.
x cea ocaec eo
o, o o ceac py c pyo ea.
yp pae co ocee,
yc copo pae copo,
Ec py ye y e ,
opoy ca o x opa.
o-o cy, o-o ypae,
Ca aae cea ep,
Ec xo e acae,
oe ey ep.
y pey cea ,
a oy e eeo,
xoa c ye ao ocao,
xoa c ao ye eeo.

Chorus:
o, oce coa o.

Bridge: (only bass)
G|--------------------------------------|
D|--------------------------------------|
A|--2-2--2------2-2--2------2-2--2---5--|
E|---------3-----------3-----------3----|

Verse, chorus:
G|---------------------------|
D|---------------------------|
A|--3-3--3-------3-3--3---7--|
E|---------5------------5----|
O oe aoe cyaec,
Ca ep poao ece,
A pya coaa aepo coaec,
ao xo poe pe eceo.
O epyc oa,
O epyc cea cep,
a, oo o xoea x e ya
yca coae po ea coax c.

Chorus:
o, oce coa o.

--------------------------------------------------------------------------------