( )

A                                                   


Intro:
B|---------------------------------------7------|
G|--6---8-9----6---8-9------6---8-9---------8---|

yee paec oo:
B|-----7------|
G|--------8---|
o e coe xopoeo
o ae o ee ea
o oe co coeo pooo
poe oo o oa e e
a o o e ocae a eax cca
e cea oa e
Coe oe oo e ypaeo

pop:
B|---------------7------|
G|--6---8-9---------8---| -x2

aax eo a e aaa
o e coe ye eo ycoa
oxo aoc cop o eaa
ae acea ocycoa
Cep ce oe paoc
aa o c oopo xoe
A oo aa cee ao-y aoc
acea o o a.

pop2:
B|---------------7------|
G|--6---8-9---------8---| -x2

B|---------------------------------------7------|
G|--6---8-9----6---8-9------6---8-9---------8---| -x2

yae cee caoe yee
ce o o o oa py
aoa ca oo oo xyee
ea ce a
oe p co oa
e aea ya acyae
A pe o e yxo e apa
o ae oo e oae

Outro:
B|-----------------------------------|
G|--6---8-9----6---8-9------6---8-9--|