( )

A                                                   

a - pooe, pooe

.C. co - .C. co

oop o ec - aopca paoa apa aea
(Vladimir Zaytcev, 2:5015/116@fidonet, e-mail: www@fito.nnov.ru)

Riff1 Riff2
Intro: Fm# Hm Fm# C# Fm# F# Hm Fm# C# Fm#

Riff1:

E||-------------------------------------------------------|
B||-------------------------------------------------------|
G||--4--2-1-4--1^2-2-2-2-1---------------1----1-2--1-2-3--|
D||------------------------4----4-3--3-4----4-------------|
A||--------------------------4----------------------------|
E||-------------------------------------------------------|

Riff2:

E||------------------------------------------------|
B||------------------------------------------------|
G||--4--2-1-4--1^2-2-2-2-1---------------1---------|
D||------------------------4----4-3--3-4----4-3-4--|
A||--------------------------4---------------------|
E||------------------------------------------------|

Riff3:

E||------4-2------4-2-4-2------4-2------4-2-4-2------2-1------2-1-2-1-2--|
B||----3--------3------------2--------2------------2--------2------------|
G||--4--------4------------2--------2------------1--------1--------------|
D||----------------------------------------------------------------------|
A||----------------------------------------------------------------------|
E||----------------------------------------------------------------------|

Hm Fm#
pooe, pooe xo oe o y pe,
C# Fm# F#
e cpaxa pxoe a o a,
apy poce, oy a e o,
Ho e aye, aye a ocpe .
A oa coopae, o ce y pxo P,
o oa pxoe, o oa ooop...

Riff2

Ho apoce, ae e -a ayx coe,
epepoce, epee xo ep epe pye.
a oce , a ooc ao c ecea,
A poxoa, ca o oce yee yca.
Ca yee e pa, ypo ca: "o e pa!
ce oc epe pepa epepoe e ac..."

Riff1 | *2

a pooe, pooe xo oe o y pe,
e cpaxa pxoe a o a,
apy poce, oy a e o,
Ho e aye, aye a ocpe .
A oa coopae, o ce y pxo P,
o oa pxoe, o oa ooop...

Riff3