( )

A                                                   

a - Po--po o o

oop aopo ao o ec - aopca paoa apa aea
(Vladimir Zaytcev, FidoNet 2:5015/116, e-mail: omni_@iname.com)

ac:

E||-------------------------------------|
B||-------------------------------------|
G||-------------------------------------|
D||-------------------------------------|
A||----------2-----------------2--------|
E||--0-0-3-4---0-3-4---0-0-3-4---0-3-4--|

B||-------------------------------------|
G||-------------------------------------|
D||-------------------------------------|
A||----------2-----------------2--------|
E||--0-0-3-4---0-3-4---0-0-3-4---0-3-4--|
E||-------------------------------------|

Hy ao yxe c ec

E
Heao cpe ox pye -
E7
e ec op eco e,
A A7
oe pa, pac x oc,
E E7
ycpo oa ae ae,
H
ce ooa, o paoop e e,
A A7
oa apy ce co po--po

p-:
E E7 E E7
Po--po o o, y-y-y-y-y
E E7 E E7
Po--po o o, y-y-y-y-y
A H E7 H
ya ye xopoo - a o e oe...

E cpe y xoa o -
o cx op yc a e ya
Oa caaa, o e yo oo,
e o oo, e oa e a,
o e e a, o ee o-o ye,
peo caea po--po...

p-:

Ha poo eee a oepe -
oo-o o paoc, x yc,
O x caa, o "o",
A o caa, o "ey a",
Ho o oey-o e e o e co,
e e aa ycy x po--po...

p-:

Solo:

epa ep pa acp e,
pepaca oooc ooop c coo,
Ce oac ocac oo eoe,
oopc coe ye aco-pyo,
Ho o a cxoe, a a e oe,
o c a oy o co po--po...

p-: 3p.