( )

A                                                   

1|-0--1-0--1-0--| [A]
2|--1----1----1-|

Am G Dm Am
1|---8----7----5--------8--|
2|-1----1----1----1--------|
3|-------------------------| [B]
4|-------------0-----------|
5|---0------------------0--|
6|--------3----------------|

{intro:} [A], [A]+[B]

Am G Dm E Am
1|---8----7----5---7------8-|
2|-1----1----1----3----3----|
3|--------------------------| [C]
4|-------------0------------|
5|---0-------------------0--|
6|--------3--------0--------|

Am(V) Am(VIII) G5(VII) G(VII)
poa oa a o ay ey apop
Dm(V) E(IV) Am(V) Am(VIII)
poa paa oy a o op [C]
oo ay a o aa pe oa c
ooy o y apopa o o ce o

oa c oa a a oo
oo o a ec ce a opo a e po
caaa oa ae: " poc e ya
cepa co eep eocopo a

F5(V) C(VIII) Gm(X) Dm(V)
{pe:} Opea a eoc eccepe oco
oae o eceoc cpaay o
F5/G(V) Dm(V) G7sus4(V) Dm(V)
aep e opao oyc e oo
G7sus4(V) C(VIII) Dm/A(V) Dm
He oo e oe aa cec a coo"

[A]+[B]

aeea yxa ao aeea o
o e eo cao o oa e y
ao xy eoy ece c yxo o ce
yxa eea oyx pocyac a cee

e e ceo o oaa oco
oe oaa ao ycya po e
ao yae po yxy xae a oy
a oa o cee xo o ooy

"Opea a eoc eccepe oco
oae o eceoc cpaay o
oo e a oy e ey - ooy
yy aa cec a co cyy"

[B]
[A]+[B]

1|---8-7-5--8-7-5--8-7-5--8-7-5---|
4|-----------------------------7--|

1|---8-7-5---8-7-5--8-7-5--8-7-5--|
2|--------5-----------------------|
3|----------------7------7--------|
4|------------------------------7-|

1|---8-7-5---8-7-5--8-7-5--8-7-5--|
2|--5-----5-----------------------|
3|----------------7------7--------|
4|------------------------------7-|

Am(V) - xxx555
Am(VIII) - x x x 9 10 8
G5(VII) - x x x 7 8 10
G(VII) - xxx787
Dm(V) - xxx765
E(IV) - xxx454
F5(V) - xxx568
C(VIII) - xxx988
Gm(X) - x x x 12 11 10
F5/G(V) - xx5568
G7sus4(V) - xx5768