( )

A                                                   

-2


Gm D# Cm F Gm D# Cm F
a pyco oe oo ce o
Gm D# Cm F Gm D# Cm F
a o e o eep ceo py
Gm D# Cm F Gm D# Cm F
e poco oo a ooeca ca
Gm D# Cm F Gm D# Cm F
cpao oya p oy
Gm D# Cm F
apapa - 4 paa
C oo oo ea a pa cea
Gm Am A# Cm D7
Ho ea caa ya ypaa
Gm D# Cm F Gm D# Cm F
opaac cpya eep o ecea cea
e e o ae ea

apapa - 4 paa

oa-o cac a cace a yo
a cace ecace a pyco o a oo
a a pee ye ecoeo e
Ox a aeo aeo aeo o e
apapa -o - 4 paa
Gm D# Cm F
apapa aa yy o e - 10 pa
ap coo ap
Intro:
e|-----------------------------------------|
B|-----------------------------------------|
G|-3/7--------------------------3/7--------|
D|-5/8--------------------------5/8--------|
A|-----------------------------------------|
E|-----------------------------------------|
e|-----------------------------------------|
B|-----------------------------------------|
G|-3/7--------------------------3/7--------|
D|-5/8--------------------------5/8--------| X2
A|-----------------------------------------|
E|-----------------------------------------|
e|-----------------------------------------|
B|-----------------------------------------|
G|-5-3-5-3-2-------------------------------|
D|-----------------------------------------|
A|-----------------------------------------|
E|-----------------------------------------|
ye
e|-----------------------------------------|
B|-----------------------------------------|
G|-----------------------------------------|
D|-5-5-5-7-7-7-8-8-8-10-8-10---------------|
A|-----------------------------------------|
E|-----------------------------------------|
e|-----------------------------------------|
B|-----------------------------------------|
G|-----------------------------------------|
D|-----------------------------------------|
A|-5-5-5-6-6-6-8-8-8-6-8-------------------|
E|-----------------------------------------|
e|-----------------------------------------|
B|-----------------------------------------|
G|-----------------------------------------|
D|-5-5-5-7-7-7-8-8-8-10-8-10---------------|
A|-----------------------------------------|
E|-----------------------------------------|
e|-----------------------------------------|
B|-----------------------------------------|
G|-7-7-7-8-8-8-10-10-8-10-8-7--------------|
D|-----------------------------------------|
A|-----------------------------------------|
E|-----------------------------------------|
pe:
e|-----------------------------------------|
B|-----------------------------------------|
G|----------5-5---5--5-5---5---------------|
D|-8-8-5-8---------------5----7-7---7------| X4
A|--------------7-----------------8--------|
E|-----------------------------------------|
o c!