( )

A                                                   

-2

Guitar solo
Am F Dm E
e----------------------------------------------------------------------------
b---10-12-13-12--10`12-10----------------------------------------------------
g--------------------------10---------------9-10-12-10--9`10-9--7------------
d----------------------------------------------------------------------------
a----------------------------------------------------------------------------
e----------------------------------------------------------------------------

e----------------------------------------15-13-12`13-12---------------------
b--------------------------------------------------------------15---------------g------------------------------------------------------------------------------
d---------------------------------------------------------------------------
a---7-----------------9----------------------------------------------------
e------------------------------------------------------------------------

e--------------------------------------------------------------------------
b---/15--15----17----------------------------------------------------------
g--------------------------------------/14--14-----16----------------------
d--------------------------------------------------------------------------
a--------------------------------------------------------------------------
e--------------------------------------------------------------------------

e--------------------------------------15-13-12`13-12----------------------
b-----------------------------------------------------------15-------------
g--------------------------------------------------------------------------
d---/15-15-15--------------------------------------------------------------
a---------------------------------------------------------------------------
e--------------------------------------------------------------------------

e---12/19-19-19-19-19-17--------10/12-12-12-12-13-12--10--------------------
b---------------------------------------------------------------------------
g---------------------------------------------------------------------------
d---------------------------------------------------------------------------
a----------------------------------------------------------------------------
e----------------------------------------------------------------------------

e---/10---10----12-----------------------------------------------------------
b-------------------------------------/10---10----12--------------------------
g------------------------------------------------------------------------------
d-----------------------------------------------------------------------------
a-----------------------------------------------------------------------------
e-----------------------------------------------------------------------------
` - \"epe\"
/ - slide