.

( )

A                                                   

Ayo
----------------
epopoee

Ocoo p:

e-------------|
B------8-7----|
G--9-------7--|
D-------------|

Em
Ceo, ae ca,
Ceo poc cepxypoo epy oa.
C
e, a,
Em
e ya o ac.
Am (C (III)) Em
epopaa o epeo a.
C H7
oy epy aa!
Em
e ya o ac!

ae:

e----------------------|
B-8----7--5----8--7--5-|
G-7----7--4----7--7--4-|
D----------------------|

- epa. e co .
- epa pa e, pa .
e - o !
Poc, ec.
a a popecc!
aa aea epopa op.
o acy poc.

e ya o ac!

O, o, e a oe!
O, o!
a apa aa epa, a e e.
Oc, ec
pa poec.
O, cep oco cep Ceao - y a!
oo apoe pa.

e ya o ac!
_________________
aleister, Irkutsk
tabs@igetus.esir.ru