.

( )

A                                                   

Ee e oo
intro:
H-|-3/5-1-0-----|- + "E e oo..."
G-|---------1h2-|-
Am Am7+
Ee e oo, e ye po,
Am7 C*
o, poxo, ee ep.
F E
Cpa oy, xo ya
Am Am7+
ye ep.
Am7 C*
o-o oe, e-o ooc
F E
ec ceo,
Am Am7+
oe cee.
Am7 C*
Paopaoc, pacoooc.
F E Am Am7+ Am7 C* F E
o-o oe e.
Ee e oo, ac ye oe.
a ep oe, ee e.
a oe o ce ya.
Cyo ce.
o-o oe, e-o ooc
ec ceo,
oe cee.
Paopaoc, pacoooc.
o-o oe e.
Solo:
Am Am7+ Am7 C* F E
E-|-0--------------------------|-0--------------------------|-----------------------|-
H-|-3/5-1-0--------1---3--1-0--|-3/5-1-0--------1---3--1-0--|-3/6-5-3-1-0--6-5-3----|-
G-|---------1h2--2---2---------|---------1h2--2---2---------|--------------7-----1--|-
D-|----------------------------|----------------------------|--------------8--------|-
Am
E-|----------------|-
H-|-3/5---3---1----|-
G-|-----1---1---2--|-
D-|----------------|-

Aop:
Am: 0-0-2-2-1-0
Am7+: 0-0-2-1-1-0
Am7: 0-0-2-0-1-0
C*: x-x-4-5-5-4
F: 1-3-3-2-1-1
E: 0-2-2-1-0-0
-3/5- - ca epx
-1h2- - Xaep o
----------------------=+=----------------------
**********************S>G**********************
******************Saint_Glook******************
********************************************
vagvampire@yandex.ru