.

( )

A                                                   


Coceo, o a cocae oo
pa eo, ooy o ye eec
Ce aop o ece ep.
a c cya ;) - Em Am C H7.

eo:
e-----7-----------------------------|
B--------8--10--8----8-10-8---10--8-|
G--9--------------9---------9-------|
D-----------------------------------|
e-----7-------------------------|
B--------8--10--8----8-10-8-----|
G--9--------------9---------9---|
D-----------------------------9-|
ec (oe yoca ;) ):
o o ,
oo oy?
apa e,e oe!
C e o ,
oe oy?
-E, e, e, ey!

e o ,
cepe oy?
o e y.
e oe!
a o ,
a ce caoy.
e , e , ?
Xoec, xoec epy cey ey
e oe.
_________________
aleister, Irkutsk
tabs@igetus.esir.ru