.

( )

A                                                   


AP - o

Tabbed by Ostapchuk Vladimir

Intro :

E------------------------------------------------------------------------|

H------------------------------------------------------------------------|

G------------------------------------------------------------------------|

D---7--------5--------4--------5--5--5--5--4------2----(2)---------------|

A---7--------5--------4--------5--5--5--5--4------2----(2)---------------|

E---5--0--0--3--0--0--2--0--0--3--3--3--3--2--0---0----(0)---------------|

I verse :

y ce o co ee apy

E------------------------------------------------------------------------|

H------------------------------------------------------------------------|

G--------------------5---------------------------------------------------|

D---7----------------5----------2----------------------------------------|

A---7----------------3----------2----------------------------------------|

E---5---------------------------0----------------------------------------|

oo poc ooco ea

E------------------------------------------------------------------------|

H------------------------------------------------------------------------|

G--------------------5---------------------------------------------------|

D---5--7-------------5----------2----------------------------------------|

A---5--7-------------3----------2----------------------------------------|

E---3--5------------------------0----------------------------------------|

ec aoe o yco ya

E------------------------------------------------------------------------|

H------------------------------------------------------------------------|

G---7--------------------------------------------------------------------|

D---7--------------------------------------------------------------------|

A---5--------------------------------------------------------------------|

E------------------------------------------------------------------------|

Pyxe oa a

E------------------------------------------------------------------------|

H------------------------------------------------------------------------|

G---7--------------------------------------------------------------------|

D---7--------------------------------------------------------------------|

A---5--------------------------------------------------------------------|

E------------------------------------------------------------------------|

p aca op ocep acoe

a, e epeepy ep pec

p aca coo ec y o

o ep co cpa cy ec

Chorus:

o! o ya peo c, o eo ae

o! He cacy eo o ca o

o! y ce - xo o, o a oe co

E-----------------------------------------------------------------------|

H-----------------------------------------------------------------------|

G-----------------------------------------4-----------------------------|

D---2-------------2-----------------7-----4-----------------------------|

A---2-------------2-----------------7-----2-----------------------------|

E---0---3-2-3-2-0-0-2-3-2--3--2--0--5-----------------------------------|

 

p aca op ocep acoe

a, e epeepy ep pec

p aca coo ec y o

o ep co cpa cy ec

o!

o ya peo c, o eo ae

o!

He cacy eo o ca o

o!

y ce - xo o, o a oe co

o!

poao eo opee oo

o!

Pa caa o poa po

e a, cpae o po

po pacoe eo a oo

cpa yy o o...

 

If you have any corrections and additions please send me.

vova@southmap.comcent.nikolaev.ua