.

( )

A                                                   

a oopa Aecapo oocee, o cae aoo opae
poy:

e|-----4-2-0h2p0-----------|---4-2-0h2p0---------------|

B|---0-----------4-2--2--0-|--0----------4-2--0--2-2-4-|

G|-1-----------------------|-1-------------------------|

D|-------------------------|---------------------------|

A|--------------------0--2-|---------------------0-0-2-|

E|-----0-------------------|---0-----------------------|

 

e|-0-----0-2-----0-4-----2-0h2p0-----------0--------0--|

B|---2-------4-------0-----------4-2-0--2--------4-----|

G|-----2-------4-------1-------------------------------|

D|-----------------------------------------------------|

A|-0-------2----------------------------0-----2--------|

E|-----------------0--------------------------------0--|

 

e|-----4-2-0h2p0-----------|---4-2-0h2p0---------------|

B|---0-----------4-2--2--0-|--0----------4-2--0--2-2-4-|

G|-1-----------------------|-1-------------------------|

D|-------------------------|---------------------------|

A|--------------------0--2-|---------------------0-0-2-|

E|-----0-------------------|---0-----------------------|

 

e|-0-----0-2-----0-4-----2-0-----------0--------|

B|---2-------4-------0-------4-2-0--2------0--4-|

G|-----2-------4-------1------------------0-----|

D|---------------------------------------2------|

A|-0-------2------------------------0------2----|

E|-----------------0----------------------------|

 

pop:

e|---------------------------------|

B|---------------------------------|

G|-----0-------0-------0-------0---| (paec 4 paa)

D|-------2-------2---2---2---4---4-|

A|---2-------2-----3-------5-------|

E|-0-------0-----------------------|

 

1 ye:

Em Am D Em

e|---------0---------------0-------------2-3-2h3p2--------------------|

B|-------0---0-----------1---1---------3----------3-------------------|

G|-----0-------0-------2-------2-----2--------------2-----0---0---0---|

D|---2-----------2---2-----------2-0--------------------2---2---2---2-|

A|-----------------0--------------------------------------------------|

E|-0--------------------------------------------------0---------------|

y, a aa cea ooe a

 

Em Am F# B7

e|---------0---------------0---------------2---------------2-------|

B|-------0---0-----------1---1-----------2---2-----------0---0-----|

G|-----0-------0-------2-------2-------3-------3-------2-------2---|

D|---2-----------2---2-----------2---4-----------4---1-----------1-|

A|-----------------0-------------------------------2---------------|

E|-0-------------------------------2-------------------------------|

e po, a o oca e co yax

 

e e epy aa

Cepy y ea,

ce poo, a cpo a

a oaax.

 

opa ooa yea paec a e, o oe, epe peo:

B7

e|---------2-------|

B|-------0---------|

G|-----2-----------|

D|---1-------------|

A|-2---------------|

E|-----------------|

pe (oe):

E7 Am

a ce , o e,

C B7

e ocxo, a pa ecoeo .

E7 Am

a e cea pea op,

C B7

o o e o oo.

 

pop.

 

2 ye (paec a e, a ep):

o pp ce a,

ae aa ee.

py pae pay oe,

A o o...

a coa y e

a o poo cee,

x ece coo ypoe

opo-ca .

 

pe.

 

B|------------------------|

G|-----0-2-4-2h4p2-0------|

D|------------------------|

G D

o e c coo, ypypa pea,

G D

po yec e c coo, aa!

Am C

oca o o, o o pec epe pa

Bm C

o p cepx x ca...

 

poy (