.

( )

A                                                   

ce, o o
INTRO: (both guitars - clean acoustic)
Gtr.1E|-------0-----------------------------------0-----|-------------------------------------------0-----|
H|-------0----/5p0---0-----------------0-----------|-1-----------------------------------3-----------|
G|-------------------------2/4---0-----2-----------|-------------------------0-----------------------|
D|-------------------------------------------------|-------------2-----------------------------------|
A|-------------------------------------------------|-------3-----------3-----------3-----------------|
E|-0-----------------------------------------------|-------------------------------------------------|
| | |
Gtr.2E|-------------------------------------------------|-------------------------------------------------|
H|-------------------0-----------------------------|-------------------0-----------------------------|
G|-------------0-----------------------------------|-------------0-----------------------------------|
D|-------2-----------------------------------------|-------2-----------------------------------------|
A|-------------------------------------------------|-3-----------------------------------------------|
E|-0-----------------------------------------------|-------------------------------------------------|

Gtr.1E|-------------------2-----0-----------0-----2-----|-------------5-----7p5\3-3p0---5-----7p5\3-3p0---|
H|-------------3-----3-----------3-----------------|-------------2---------------2-----------------2-|
G|-------2-----------2-----------------------------|-------------2-----------------------------------|
D|-0-------------------^---------------------------|-------2-------^---------------------------------|
A|---------------------|---------------------------|-0-------------|---------------------------------|
E|-------------------------------------------------|-------------------------------------------------|
| | |
Gtr.2E|-------------------0-----------------------------|-------------------------------------------------|
H|-------------3-----------------------------------|-------------------0-----------------------------|
G|-------2-----------------------------------------|-------------2-----------------------------------|
D|-0-----------------------------------------------|-------2-----------------------------------------|
A|-------------------------------------------------|-0-----------------------------------------------|
E|-------------------------------------------------|-------------------------------------------------|

Gtr.1E|-------0-----------------------------------------|-------------------------0-----------------------|
H|-------0----/5p0---0-----------------------------|-------------------------------0-----------------|
G|-------------------------0-----------------------|-------------0-----------------------------0-----|
D|-------------------------4-/5--2-----------------|-------2-----------2-----------------4-----------|
A|-------------------------------------2-----------|-3-----------------------------------------------|
E|-0-----------------------------------------3-----|-------------------------------------------------|
| | |
Gtr.2E|-------------------------------------------------|-------------------------------------------------|
H|-------------------0-----------------------------|-------------------0-----------------------------|
G|-------------0-----------------------------------|-------------0-----------------------------------|
D|-------2-----------------------------------------|-------2-----------------------------------------|
A|-------------------------------------------------|-3-----------------------------------------------|
E|-0-----------------------------------------------|-------------------------------------------------|

Gtr.1E|-------------------------------------------------|-0-----0-----0-0-0-0-----------------------------|
H|-------10-10-10\---7--7--7\----3--3--3-----------|-2-----0-----0-0-0-0-----------------------------|
G|-7-----11-11-11\---7--7--7\----2--2--2-----------|-2-----2-----2-2-2-2-----------------------------|
D|-0-----0--0--0-----0--0--0-----0--0--0-----------|-2-----2-----2-2-2-2-----------------------------|
A|-------------------------------------------------|-0-----0--x--0-0-0-0-----------------------------|
E|-------------------------------------------------|-------------------------------------------------|
| | |
Gtr.2E|-------------------2-----------------------------|-------------------------------------------------|
H|-------------3-----------------------------------|-------------------0-----------------------------|
G|-------2-----------------------------------------|-------------2-----------------------------------|
D|-0-----------------------------------------------|-------2-----------------------------------------|
A|-------------------------------------------------|-0-----------------------------------------------|
E|-------------------------------------------------|-------------------------------------------------|
(0:25 - 1:05)
VERSE 1:
VoiceE|--------------------------------------------------------------------|
H|--------------------------------------------------------------------|
G|--------------------------------------------------------------------|
D|---5----5-----5-----------4----5---4----2-------2-------------------|
A|--------------------------------------------------------------------|
E| Dver' na klyuch - i svintzom tos - ka ------------|
| | |
Gtr.1E|----------------------------------|-----3-----------3---------------|
H|------8-----------8---------------|---------5-----------5-------5---|
G|----------9-----------9-------9---|-------------5-----------5-------|
D|--------------9-----------9-------|---------------------------------|
A|--7-------------------------------|-3-------------------------------|
E|----------------------------------|---------------------------------|
| | |
Gtr.2E|----------------------------------|---------------------------------|
H|--------------0-------------------|-------------1-------------------|
G|----------0-----------------------|---------0-----------------------|
D|------2---------------------------|-----2---------------------------|
A|----------------------------------|-3-------------------------------|
E|--0-------------------------------|---------------------------------|

VoiceE|--------------------------------------------------------------------|
H|--------------------------------------------------------------------|
G|--------------------------------------------------------------------|
D|--4------4-----4-----------2--4----5------4-----2-------------------|
A|----------------------------------------------------------------2---|
E| Bol' v du - she slovno smert' bliz - ka. O - |
| | |
Gtr.1E|------5-----------5---------------|-----------------5---------------|
H|----------7-----------7-------7---|-------------5-------5-----------|
G|--------------7-----------7-------|---------6---------------6-------|
D|----------------------------------|-----7-----------------------7---|
A|--5-------------------------------|-0-------------------------------|
E|----------------------------------|---------------------------------|
| | |
Gtr.2E|----------2-----------------------|---------------------------------|
H|--------------3-------------------|-------------2-------------------|
G|------2---------------------------|---------2-----------------------|
D|--0-------------------------------|-----2---------------------------|
A|----------------------------------|-0-------------------------------|
E|----------------------------------|---------------------------------|

VoiceE|--------------------------------------------------------------------|
H|--------------------------------------------------------------------|
G|--4---4-------4-----------2---------3-------------------------------|
D|-----------------------------5----------2-------5-------------------|
A|----------------------------------------------------------------2---|
E| din lish' shag smozhet vsyo re - shit'. Te - |
| | |
Gtr.1E|----------------------------------|-----3-----------3---------------|
H|------8-----------8---------------|---------5-----------5-------5---|
G|----------9-----------9-------9---|-------------5-----------5-------|
D|--------------9-----------9-------|---------------------------------|
A|--7-------------------------------|-3-------------------------------|
E|----------------------------------|---------------------------------|
| | |
Gtr.2E|----------------------------------|---------------------------------|
H|--------------0-------------------|-------------1-------------------|
G|----------0-----------------------|---------0-----------------------|
D|------2---------------------------|-----2---------------------------|
A|----------------------------------|-3-------------------------------|
E|--0-------------------------------|---------------------------------|


VoiceE|--------------------------------------------------------------------|
H|--------------------------------------------------------------------|
G|--2----2------2----------------2----3-2----2--------2---------------|
D|---------------------------5--------------------5-------5---2-------|
A|--------------------------------------------------------------------|
E| per' ty - vrag, ya ne znayu, kak mne zhi - i - it'.. -|
| | |
Gtr.1E|------5-----------5---------------|-----5-----------5---------------|
H|----------7-----------7-------7---|---------5-----------5-----------|
G|--------------7-----------7-------|-------------6-----------6-------|
D|----------------------------------|---------------------------------|
A|--5-------------------------------|-0-------------------------------|
E|----------------------------------|---------------------------------|
| | |
Gtr.2E|----------2-----------------------|---------------------------------|
H|--------------3-------------------|-------------2-------------------|
G|------2---------------------------|---------2-----------------------|
D|--0-------------------------------|-----2---------------------------|
A|----------------------------------|-0-------------------------------|
E|----------------------------------|---------------------------------|

VoiceE|--------------------------------------------------------------------|
H|--------------------------------------------------------------------|
G|-----------2--------------------------------------------------------|
D|------------------5-------4--------5---4---2------------------------|
A|--------------------------------------------------------------------|
E|----- Kak dal' - she zhi - i - it'.... mmmmmmm ---|
| | |
Gtr.1E|----------5-------3-------2-------|-----0-----------------------0---|
H|------5---------------------------|-----0--/5p0-0-----------0-------|
G|--5-------------------------------|-----------------2/4-0-----------|
D|----------------------------------|---------------------------------|
A|--0-----------0-------0-------0---|---------------------------------|
E|----------------------------------|-0-------------------------------|
| | |
Gtr.2E|----------------------------------|---------------------------------|
H|--1-------------------------------|-------------0-------------------|
G|--2-------------------------------|---------2-----------------------|
D|--x-------------------------------|-----2---------------------------|
A|--0-------3-------2-------0-------|---------------------------------|
E|----------------------------------|-0-------------------------------|

Gtr.1E|------------------------------0---|-------------2---0-------0-------|
H|--1-----------------------3-------|---------3---3-------3-----------|
G|------------------0---------------|-----2-------2-------------------|
D|----------2-----------------------|-0-------------^-----------------|
A|------3-------3-------3-----------|---------------|-----------------|
E|----------------------------------|---------------------------------|
| | |
Gtr.2E|----------------------------------|-------------0-------------------|
H|--------------0-------------------|---------3-----------------------|
G|----------0-----------------------|-----2---------------------------|
D|------2---------------------------|-0-------------------------------|
A|--3-------------------------------|---------------------------------|
E|----------------------------------|---------------------------------|

Gtr.1E|-0-----0-----0-0-0-0-----------------------------|
H|-2-----0-----0-0-0-0-----------------------------|
G|-2-----2-----2-2-2-2-----------------------------|
D|-2-----2-----2-2-2-2-----------------------------|
A|-0-----0--x--0-0-0-0-----------------------------|
E|-------------------------------------------------|
| |
Gtr.2E|-------------------------------------------------|
H|-------------------0-----------------------------|
G|-------------2-----------------------------------|
D|-------2-----------------------------------------|
A|-0-----------------------------------------------|
E|-------------------------------------------------|
(1:06 - 1:36) VERSE 2, here bass enters:
Mne kol - dun predska - zal pe - chal'.
Bass G|----------------------------------|---------------------------------|
D|--------------2-------------------|---------------------------------|
A|------2---------------------------|-3-------------------------------|
E|--0-------------------------------|---------------------------------|
Dolgiy put' v grozo - vu - yu dal'
Bass G|--------------7-------------------|---------------------------------|
D|------7---------------------------|---------------------------------|
A|--5-------------------------------|---------------------------------|
E|----------------------------------|-5-------------------------------|
...
VoiceE|--------------------------------------------------------------------|
H|--------------------------------------------------------------------|
G|-----------2--------------------------------------------------------|
D|------------------5-------4---------5---4-----2----------2----2--5-2|
A|--------------------------------------------------------------------|
E|------ Tak ho - chesh' ty - y - y... Vse chto bylo|
| | |
Gtr.1E|----------5-------3-------2-------|---------0-----------------------|
H|------5---------------------------|---------0-^---------------------|
G|--5-------------------------------|---------0-|---------------------|
D|----------------------------------|-----2---2-|---------------------|
A|--0-----------0-------0-------0---|-----------|---------------------|
E|----------------------------------|-0-------------------------------|
(1:36 - 1:57)
CHORUS: (distorted guitar)
VoiceE|----------------------------------------------------------------------------------------------------|
H|----------------------------------------------------------------------------------------------------|
G|----------------------------------------------------------------------------------------------------|
D|---7----------------4-----------------5--4--2------2------------------------------------2----2--5-2-|
A|------------------------------------------------5---------------------------------------------------|
E| svet moy chistyy i svyatoy. Vsyo chto bylo |
| | |
Gtr.3E|--------------------------------------------------|-------------------------------------------------|
H|--------------------------------------------------|-------------------12~~~~~~~~~~~-----------------|
G|--2-----------------4-----------------------------|-------------------------------------------------|
D|--2-----------------4-----------------------------|-2-----------------------------------------------|
A|--0-----------------2-----------------3--2--------|-2-----------------------------------------------|
E|--------------------------------------------3--2--|-0-----------------------------------------------|

VoiceE|----------------------------------------------------------------------------------------------------|
H|----------------------------------------------------------------------------------------------------|
G|----------------------------------------------------------------------------------------------------|
D|--7-----------------4-----------------5--4--2------2------------------------------------2----2--5-2-|
A|------------------------------------------------5---------------------------------------------------|
E| rok moy zhadnyy i slepoy Vsyo chto budet|
| | |
Gtr.3E|--------------------------------------------------|-------------------12~~~~~~~~~~~-----------------|
H|--------------------------------------------------|-------------------------------------------------|
G|--2-----------------7-----------------------------|-------------------------------------------------|
D|--2-----------------7-----------------------------|-2-----------------------------------------------|
A|--0-----------------5-----------------3--2--------|-2-----------------------------------------------|
E|--------------------------------------------3--2--|-0-----------------------------------------------|

VoiceE|----------------------------------------------------------------------------------------------------|
H|----------------------------------------------------------------------------------------------------|
G|----------------------------------------------------------------------------------------------------|
D|---7----------------4-----------------5---4--2-------2----------------4----------------5--4--2------|
A|-------------------------------------------------5-----------------------------------------------5--|
E| krest moy sem' krugov proyti mne v ognennoy pus-|
| | |
Gtr.3E|--------------------------------------------------|-------------------------------------------------|
H|--------------------------------------------------|-------------------------------------------------|
G|--2-----------------4-----------------------------|-5-----------------7-----------------------------|
D|--2-----------------4-----------------------------|-5-----------------7-----------------------------|
A|--0-----------------2-----------------3--2--------|-3-----------------5-----------------3--2--------|
E|--------------------------------------------3--2--|-------------------------------------------3--2--|

VoiceE|--------------------------------------------------|
H|--------------------------------------------------|
G|--------------------------------------------------|
D|--2-----------------4-----------------------------|
A|--------------------------------------------------|
E| ty - ne..... --------------------|
| |
Gtr.3E|--------------------------------------------------|
H|--------------------------------------------------|
G|--5-----------------7-----R-----------------------|
D|--5-----------------7-----E-----------------------|
A|--3-----------------5-----S-----------------------|
E|--------------------------T-----------------------|
(1:58 - 2:28) VERSE 3
(2:28 - 2:49) CHORUS
SOLO:
(2:50 - 3:14)
PART A: (Mavrin's lead) (with slide)
LeadE|--------------------------------12----------------|-------------------------------------------------|
H|--------------------------9-/12----12--\-9--------|----------------------------7-/9-----7-/9-----7--|
G|-/9-----------------------9-/12----12--\-9--9-----|-7--------------------------7-/9--9--7-/9--9--7--|
D|-/9-----------------------------------------9-----|-7--------------------------------9--------9-----|
A|--------------------------------------------------|-------------------------------------------------|
E|--------------------------------------------------|-------------------------------------------------|
| | |
BassG|--------------------------------------------------|-------------------------------------------------|
D|--------------------------------------------------|-------------------------------------------------|
A|-----------------------------------------------2--|-3-----------------3-----------------3--2--------|
E|--0-----------------0-----------------0--2--4-----|-------------------------------------------3--2--|

LeadE|--------------------------------------------------|-------12-12-12----------------20----------------|
H|-/9--------7-----------7-/9--------7--------------|-7-/12-12-12-12----------17/20-20-20--\-17-------|
G|-/9--9-\7--7--7--------7-/9--9-\7--7--7-----------|-7-/12-------------------17/20----20--\-17-17----|
D|-----9-\7-----7--------------9-\7-----7-----------|-------------------------------------------17----|
A|--------------------------------------------------|-------------------------------------------------|
E|--------------------------------------------------|-------------------------------------------------|
| | |
BassG|--------------------------------------------------|-------------------------------------------------|
D|--------------------------------------------------|-------------------------------------------------|
A|-----------------------------------------------2--|-3-----------------3-----------------3--2--------|
E|--0-----------------0-----------------0--2--4-----|-------------------------------------------3--2--|

LeadE|--------------------------------------------------|-------------20-20-20\---------20-20-20\---------|
H|-----------------------------19/21----19/21----19-|/21----17/20-20-20-20\---17/20-20-20-20\---------|
G|-/21------\------------------19/21-21\19/21-21\19-|/21-21-17/20-------------17/20-------------------|
D|-/21------\------------------------21\------21\---|----21-------------------------------------------|
A|--------------------------------------------------|-------------------------------------------------|
E|--------------------------------------------------|-------------------------------------------------|
| | |
BassG|--------------------------------------------------|-------------------------------------------------|
D|--------------------------------------------------|-------------------------------------------------|
A|-----------------------------------------------2--|-3-----------------3-----------------------------|
E|--0-----------------0--------------------2--4-----|-------------------------------------------------|

LeadE|--------------------------------------------------|-------------------------------------------------|
H|--5-/7--------------------5-/7--------------------|-------------------------------------------------|
G|--5-/7--7--5-/7-----7-----5-/7--7--5-/7-----7-----|-5-/7-----5-\-----/5-----2-----------------------|
D|--------7--5-/7--7--7--7--------7--5-/7--7--7--7--|-5-/7-----5-\-----/5-----2-----------------------|
A|-----------------7-----7-----------------7-----7--|-------------------------------------------------|
E|--------------------------------------------------|-------------------------------------------------|
| | |
BassG|--------------------------------------------------|-------------------------------------------------|
D|--------------------------------------------------|-------------------------------------------------|
A|--5-----------------5-----------------------------|-------------------------------------------------|
E|--------------------------------------------------|-5-----------------5-----------------------------|
(3:14 - 3:38)
PART B: (Holstinin's lead)
LeadE|-------------------------------------------------|-------------------------------------------------|
H|-------------------------------------------------|-------------------------------------------------|
G|-------7-----------------------------------------|-------------------------------------------------|
D|-7h8h9-------------------------------------5--7--|-7h8p7p5-----5b7rel5-----------------------------|
A|-------------------------------------------------|---------7---------------------------------------|
E|-------------------------------------------------|-------------------------------------------------|
| | |
BassG|----------------R--------------------------------|----------------R--------------------------------|
D|----------------E--------------------------------|----------------E--------------------------------|
A|-7-----------5--S--7-----------------------------|-3-----------2--S--3-----------------------------|
E|----------7-----T--------------------------------|----------3-----T--------------------------------|

LeadE|-------------------------------------------------|------------------------A.H.--------A.H.---------|
H|-------------------------------------------------|-------------------------------------------------|
G|-------------------------------------------------|-------------7-----9--7-b11...rel--------x-|
D|-4~~~~~~~~~~~~~~~~~~~~---------------5--4--7--5--|-9--7--10--9---10-----------------------------x--|
A|----------------------------7--5--7--------------|------------------------------------------- rake |
E|-------------------------------------------------|-------------------------------------------------|
| | |
BassG|----------------R--------------------------------|----------------R-----------------------R--------|
D|----------------E--------------------------------|----------------E-----------------------E--------|
A|-5-----------3--S--5-----------------------------|----------------S-----------------5--7--S--5--7--|
E|----------5-----T--------------------------------|-5--------0--3--T--5-----------7--------T--------|

LeadE|-------12----------------------17b19...release17-|-19-18-17-15-17h18p17p15-17p15--15---17b18..b19--|
H|-12-14----15b17----------------------------------|------------------------------17-----------------|
G|-------------------------------------------------|-------------------------------------------------|
D|-------------------------------------------------|-------------------------------------------------|
A|-------------------------------------------------|-------------------------------------------------|
E|-------------------------------------------------|-------------------------------------------------|
| | |
BassG|----------------R--------------------------------|----------------R--------------------------------|
D|----------------E--------------------------------|----------------E--------------------------------|
A|-7-----------5--S--7-----------------------------|-3-----------2--S--3-----------------------------|
E|----------7-----T--------------------------------|----------3-----T--------------------------------|

Ya
LeadE|-15~~~~-\---------------------12------------------------------|------------------------------------|
H|--------sl-----------------12----15p12-15p12------------------|------------------------------------|
G|----------------14b16-----------------------14p12-14p12-------|----- trill ---------------R--------|
D|-------------------------------------------------------14-----|---------------------------E--------|
A|-------------------------------------------------|-10p7h10p7h10p7h10p7h10p7h10p7h10p7h10p7--S------|
E|-------------------------------------------------|---------------------------T---------5--4--3--2--|
| | |
BassG|----------------R--------------------------------|---------------------------R---------------------|
D|----------------E--------------------------------|---------------------------E---------------------|
A|-5-----------3--S--5-----------------------------|---------------------------S---------------------|
E|----------5-----T--------------------------------|-5--5--5--5--5--5--5--5--5-T---------5--4--3--2--|
(3:38 - 4:08)
VERSE 3:
videl son, kak v etot dom ty serd - tze prinesla svo - yo. I
E|-------------------------------------------------|-------------------------------------------------|
H|-------------------------------------------------|-------------------------------------------------|
G|-------------------------------------------------|-------------------------------------------------|
D|-------------------------------------------------|-5-----------------------------5-----4-----5-----|
A|-2-----------------------2-----------------------|-3-----------------------------3-----2-----3-----|
E|-0--------------------0--0--------------------0--|----------------------------0-----0-----0-----0--|
. . . . . .
bol' proshla, i umer strah v dushe.
E|-------------------------------------------------|-------------------------------------------------|
H|-------------------------------------------------|-------------------------------------------------|
G|-------------------------------------------------|-------------------------------------------------|
D|-7-----------------------7-----------------------|-------------------------------------------------|
A|-5-----------------------5-----------------------|-7-----------------------------------------------|
E|----------------------0-----------------------0--|-5-----------------------------------5--4--3--2--|
. . . . . .
...
Kak smert' bliz - ka - a - a. Vse chto bylo,
E|-------------------------------------------------|-------------------------------------------------|
H|-------------------------------------------------|-------------------------------------------------|
G|-------------------------------------------------|-------------------------------------------------|
D|-------------------------------------------------|-------------------------------------------------|
A|-------------------------------------------------|-------------------------------------------------|
E|-5--5--5--5--5--5--5--5--3--3--3--3--2--2--2--2--|-0--0--0--0--0--0--0--0--0--0--0--0--0--0--0-----|
. . . . . . . . . . . . . . . . . . . . . . . . . . . . . . .
(4:08 - 5:10) Repeat CHORUS 2 times, slow down in the end