.

( )

A                                                   


Ap - a o

oopa: ac Cy aka TheXaM (2:5020/1619.404@FidoNet)

h - hammer on

p - pull off

s - slide

let ring - oca cpyy yae (e aya)

/ - pitch bend to

r - return (opa)

cyee:

e|-----------------------------------------|

B|-----------------------------------------|

G|-----------------------------------------|

D|------7----5-------5h7------7----5-------|

A|------7----7----5h7---------7----7-------|

E|-5---------------------5-----------------|

^let ring ^let ring

Coo 1 (o cye): Distorted Guitar

e|-----------------------------------------|

B|-----------------------------------------|

G|-7/8r7--7--5----------------------5s0----|

D|--------------7s5-----5--7--5--7---------|

A|-----------------------------------------|

E|-----------------------------------------|

Coo 2: Distorted Guitar

e|-----------------------|

B|-----------------------|

G|-9s14-14-14---s0-------|

D|-----------------------|

A|-----------------------|

E|-----------------------|

^^ Vibrato

Coo 3: Distorted Guitar

e|-----------------------------------------|

B|----------------5--5--5------------------|

G|-------------5-----------7--5------------|

D|-5--7--5--7--------------------7---------|

A|-----------------------------------------|

E|-----------------------------------------|

^^^^^^^ eoo pitch bend

e|-----------------------------------------|

B|----------------5--5--5------------------|

G|-------------5-----------7--5------------|

D|-5--7--5--7--------------------8---------|

A|-----------------------------------------|

E|-----------------------------------------|

^^^^^^^ eoo pitch bend

Coo 4: Distorted Guitar

e|----------------------------------------------------------------|

B|-12/13--12/13--12/13--12/13--13--12--10--12/13r12--13--12--10s4-|

G|----------------------------------------------------------------|

D|----------------------------------------------------------------|

A|----------------------------------------------------------------|

E|----------------------------------------------------------------|

e|----------------------------------------------------------------|

B|-4--4--4--4--3--1--------4--3--1--------------------------------|

G|-------------------2--------------2-----------------------------|

D|----------------------------------------------------------------|

A|----------------------------------------------------------------|

E|----------------------------------------------------------------|