.

( )

A                                                   

oep pa.

Intro: | Am7 | Am6 | F7+ | Am, Dm6/A |

Am7

O pa o pa

Am6

eo oe copae,

F7+

e cea

C G

ce ae e.

o acae,

ae ee ceae,

Caxe o ce,

o o ce ceac !

F G Am

3aca, a pyax y e aca,

F G Am

aca o ee o...

F G Am H C D

aeo, a, e ea oaec pa,

F G

ae - oep pa.

 

o ce xp eo

oe po co ce,

xae y cx

O yee oxa.

oc e ao,

ya o ye po.

o coe

o paccea oxpa.

 

pe..

Hm7

oca ao -

Hm6

x o coe ao,

G7+

ao ea,

D A

Cpaxo yo yco,

e yae,

a eo oe copae,

a paae

ae e.

3aca, a pyax y e aca,

G A Hm

aca o ee o...

G A Hm C# D E

aeo, a, e ea oaec pa,

G A

ae - oep pa.

 

ayayp:

1. Coo oce epoo yea:

1|---------------------------------------------------------------------

2|-----10----12--10--12--13--12--13----13--12--13--15--13--15-

 

1|--17--19--20--19---19--17--19--

2|----------------

 

2.Coo oce opoo yea:

3|------------------9-8-9----------------------8-9----------------------

4|-7--10-9-10---7--------10---7--10-9-10--------10--9-10-7--6-7---

5|----------------------------------------------------------------------8-

oo oe caoe, oo a oay e.

 

3.Coo oce peeo yea:

2|--7--7-------------7--7-------------7--7-----------------------------------

3|---------9-7--------------9-7--------------9-7---------6-7-7-7-9-6--7-6----

4|--------------9-9--------------9-9--------------9-9--9------------------9--

oop, oa e aoec...

 

Dm6/A:

E A D G H E

[x 0 3 4 3 x]