.

( )

A                                                   

intro:
|---------------|
|---------------|
|---------------|
|-----------2---| *4paa
|------2----2---|
|-0----0----0---|
ae paec o, o:

|---------------|----------------|---------------|
|---------------|----------------|---------------|
|---------------|----------------|---------------|
|--------2------|----------------|---------------|
|--------2-ecoo pa---------|---------------|
|-----0---------|----------------|---------------|

 

|---------------|----------------|---------------|---------------|
|---------------|----------------|---------------|---------------|
|---------------|----------------|---------------|---------------|
|---------------|----------------|-10-10-10-10**-|-7--7--7--7**--|-ecoo pa--|
|----2----7-----|--5~~-----2paa-|-10-10-10-10**-|-7--7--7--7**--|
|----0----5---0-|--3~~---0-------|--8--8--8--8**-|-5--5--5--5**--|

 

 

 

 

intro solo:
|---------------|------0----1----|--5------------|
|--3------------|----------------|---------------|
|---------------|----------------|---------------|
|---------------|----------------|---------------|
|---------------|----------------|---------------|
|---------------|----------------|---------------|

----------------|---------------|-------1-3--1----|--0------------|
------6---------|--8------------|-----------------|---------------|
-----------7----|---------------|-----------------|---------------|
----------------|---------------|-----------------|---------------|
----------------|---------------|-----------------|---------------|
----------------|---------------|-----------------|---------------|

---------------|---------------|------0----1----|--5------------|
--1------------|--3------------|----------------|---------------|
---------------|---------------|----------------|---------------|
---------------|---------------|----------------|---------------|
---------------|---------------|----------------|---------------|
---------------|---------------|----------------|---------------|

----------------|---------------|---------3-------|--0------------|
------6---------|--8------------|------6-----6----|---------------|
-----------7----|---------------|-----------------|---------------|
----------------|---------------|-----------------|---------------|
----------------|---------------|-----------------|---------------|
----------------|---------------|-----------------|---------------|

--8------------|---------------|------0----5----|--10------------|
---------------|--6------------|------8----6----|--10------------|
---------------|--7------------|----------------|----------------|
---------------|---------------|----------------|----------------|
---------------|---------------|----------------|----------------|
---------------|---------------|----------------|----------------|

------------------|--8------------|-------6-8--6----|--5------------|
------10----------|--8------------|-------6-8--6----|--5------------|
------10----10----|---------------|-----------------|---------------|
------------12----|---------------|-----------------|---------------|
------------------|---------------|-----------------|---------------|
------------------|---------------|-----------------|---------------|

---------------|---------------|------0----5----|--10------------|
--5------------|--6------------|------8----6----|--10------------|
--5------------|--7------------|----------------|----------------|
---------------|---------------|----------------|----------------|
---------------|---------------|----------------|----------------|
---------------|---------------|----------------|----------------|

------------------|--8------------|------6--8--6----|--5------------|
------10----------|--8------------|------6--8--6----|--5------------|
------10----10----|---------------|-----------------|---------------|
------------12----|---------------|-----------------|---------------|
------------------|---------------|-----------------|---------------|
------------------|---------------|-----------------|---------------|

--12------------|--13------------|
--13------------|--15------------|
----------------|----------------|
----------------|----------------|
----------------|----------------|
----------------|----------------|

1rif
|---------------|----------------|---------------|
|---------------|----------------|---------------|
|---------------|----------------|---------------|
|--10\\12--------|-------7--------|-7\\66----------|
|--10\\12--------|-2-2-2-5-2-2-2--|-5\\44----------|
|--8-\\10--------|-0-0-0---0-0-0--|---------------|

pe:
|---------------|----------------|---------------|---------------|
|---------------|----------------|---------------|---------------|
|---------------|----------------|---------------|---------------|
|---------------|----------------|-10-10-10-10**-|-7--7--7--7**--|-ecoo pa--|
|----2----7-----|--5~~-----2paa-|-10-10-10-10**-|-7--7--7--7**--|
|----0----5---0-|--3~~---0-------|--8--8--8--8**-|-5--5--5--5**--|
2rif:
|-----------------|---------------|-----------------|
|-----------------|---------------|-----------------|
|-----------------|---------------|-----------------|
|-7----6----5----5|--7----6----5--|---5-------------|2 paa
|5--55---55---33--|55--55---55----|33---------------|
|-----------------|---------------|-----------------|

rif3:
|-----------------|---------------|-----------------|---------------|
|-(10)-10-(8)-8-(6)-6-(8)-10\\(11)-|11-(9)-9-(7)-7-(9)---------------|
|-----------------|---------------|-----------------|---------------|
|-----------------|---------------|-----------------|---------------|
|-----------------|---------------|-----------------|---------------|
|-----------------|---------------|-----------------|---------------|

rif4:
|-----------------|---------------|-----------------|--------------------|
|-----------------|---------------|-----------------|--------------------|
|-----------------|---------------|-----------------|--------------------|
|-----------------|---------------|-----------------|--------------------|
|2-------2---2----|--2---4-------4|--4-------4---5--|----5---7-------7---|
|0-0-0-0-0-0-0-0-0|0-0-0-2-2-2-2-2|2-2-2-2-2-2-2-3-3|3-3-3-3-5-5-5-5-5-5-|

------------------|---------------|
------------------|---------------|
------------------|---------------|
------------------|---------------|
-2--4--5--7--4-5-7|-4--5--7-------|
-0--2--3--5--2-3-5|-2--3--5-------|

 

Em D/E C#m/E
Ko o xpyca ap
C/E
He cpoc e?
Em D/E C#m/E
Ko e y oea
C/E
Cpe ea ?
D D/F# Em Eb
Co, e oepe eo py, -1rif
D D/F# C7 B7
Ka e pe o cy!

a, o o o o -
a yepe!
a, o pa c oe
oac ce!
Ho e pa o - o py.
Co, e oepe eo py!

pe:
Em Edim Em Edim
a, oe, a oe,
D B7
e o y.
Em Edim Em Edim
pee a cex poa
C6 C D
e o cy.
Em Edim Em Edim D B7
aa pepaa ooo py,
Em Edim Em Edim
Cay oo, cae o,
C6 C D Em Edim Em11 Em Edim Em11
ep co a.

2rif:

, o cex ce
epx oaax,
o ec ca po pec -
oc a ea.
ayy e ea,
epae pa cea.

pe.

G
xpycao ape
F
o p,
Em
opo e pa
D
Hee ,
Gm
xpycao ape
F
ce -
Eb
o eo , o ae,
D Em
eec ya o.
rif3
rif4

O, oca po pec,
o copo cpe a ocpe.

pe.