.

( )

A                                                   

NOCH\' KOROCHE DNYA
a pa O...
Tempo: slow (57 bpm)
(0:02 - 0:35)
INTRO: (synthesizer arranged for guitar)
SynthE|-------------------------------------------|-------------------------------------------|
H|-----------------12---11-------------------|-----------------12---11-------------------|
G|--9------------------------12----11--------|--9------------------------12----11--------|
D|--9--------------9----8--------------------|--9--------------9----8--------------------|
A|--7------------------------10----9---------|--7------------------------10----9---------|
E|-------------------------------------------|-------------------------------------------|

SynthE|-------------------------------------------|-------------------------------------------|
H|-----------------12---10-------------------|-------------------------------------------|
G|--7------------------------12----11--------|--9-------------------11---------10--------|
D|--7--------------9----7--------------------|--9-------------------8----------7---------|
A|--5------------------------10----9---------|--7-------------------9----------8---------|
E|-------------------------------------------|-------------------------------------------|

Synth E|-------------------------------------------|-------------------------------------------|
H|-----------------12---11-------------------|-----------------12---11-------------------|
G|--9------------------------12----11--------|--9------------------------12----11--------|
D|--9--------------9----8--------------------|--9--------------9----8--------------------|
A|--7------------------------10----9---------|--7------------------------10----9---------|
E|-------------------------------------------|-------------------------------------------|
| | |
Synth2E|---------------------------------0---------|---------------------------0---0-3---------|
H|-------------------------------0-----------|-------------------------0---0-------------|
G|-----------------------------0-------------|-------------------------------------------|
D|-------------------------------------------|-------------------------------------------|
A|-------------------------------------------|-------------------------------------------|
E|-------------------------------------------|-------------------------------------------|

Synth E|-------------------------------------------|-------------------------------------------|
H|-----------------12---10-------------------|-------------------------------------------|
G|--7------------------------12----11--------|--9----------------------------------------|
D|--7--------------9----7--------------------|--9----------------------------------------|
A|--5------------------------10----9---------|--7----------------------------------------|
E|-------------------------------------------|-------------------------------------------|
| | |
Synth2E|-------------------------------------------5-7----------------5------------------------|
H|-------------------------------5-7---5-7-8-|--------------------8-7--------------------|
G|-----------------------------7-----7-------|-------------------------------------------|
D|-------------------------------------------|-------------------------------------------|
A|-------------------------------------------|-------------------------------------------|
E|-------------------------------------------|-------------------------------------------|
Tempo: faster (90 bpm)
(0:36 - 0:57)
RIFF 1:
Gtr.1E|--7-------5---7-------5---7---8---|-7-------5---7-------5---7---8---|
Gtr.2H|--8-------7---8-------7---8---10--|-8-------7---8-------7---8---10--|
G|----------------------------------|---------------------------------|
D|----------------------------------|---------------------------------|
A|----------------------------------|---------------------------------|
E|----------------------------------|---------------------------------|
| | |
Bass G|----------------------------------|---------------------------------|
D|--9---9---9---9---9---9---9---9---|-7---7---7---7---7---7---7---7---|
A|----7---7---7---7---7---7---7---7-|---5---5---5---5---5---5---5---5-|
E|----------------------------------|---------------------------------|
| | |
FluteE|--12----------------------12--17--|-15----------------------15--17--|
H|----------------------12----------|---------------------12----------|
G|----------------------------------|---------------------------------|
D|----------------------------------|---------------------------------|
A|----------------------------------|---------------------------------|
E|----------------------------------|---------------------------------|

Gtr.1E|--7-------5---7-------5---7---8---|-7-------5---7-------5---7---8---|
Gtr.2H|--8-------7---8-------7---8---10--|-8-------7---8-------7---8---10--|
G|----------------------------------|---------------------------------|
D|----------------------------------|---------------------------------|
A|----------------------------------|---------------------------------|
E|----------------------------------|---------------------------------|
| | |
Bass G|----------------------------------|---------------------------------|
D|--5---5---5---5---5---5---5---5---|-7---7---7---7---7---7---7---7---|
A|----3---3---3---3---3---3---3---3-|---5---5---5---5---5---5---5---5-|
E|----------------------------------|---------------------------------|
| | |
FluteE|--15----------------------15--17--|-17----------15----------14------|
H|----------------------12----------|---------------------------------|
G|----------------------------------|---------------------------------|
D|----------------------------------|---------------------------------|
A|----------------------------------|---------------------------------|
E|----------------------------------|---------------------------------|

Gtr.1E|--7-------5---7-------5---7---8---|-7-------5---7-------5---7---8---|
Gtr.2H|--8-------7---8-------7---8---10--|-8-------7---8-------7---8---10--|
G|----------------------------------|---------------------------------|
D|----------------------------------|---------------------------------|
A|----------------------------------|---------------------------------|
E|----------------------------------|---------------------------------|
| | |
Bass G|----------------------------------|---------------------------------|
D|--9---9---9---9---9---9---9---9---|-7---7---7---7---7---7---7---7---|
A|----7---7---7---7---7---7---7---7-|---5---5---5---5---5---5---5---5-|
E|----------------------------------|---------------------------------|
| | |
FluteE|--12----------------------12--17--|-15----------------------15--17--|
H|----------------------12----------|---------------------12----------|
G|----------------------------------|---------------------------------|
D|----------------------------------|---------------------------------|
A|----------------------------------|---------------------------------|
E|----------------------------------|---------------------------------|

Gtr.1E|--7-------5---7-------5---7---8---|-7-------5---7---------\\\\\\\\\\\\----|