.

( )

A                                                   

Ap
epo acaa
INTRO:
RIFF 1 (play 2 times):
Gtr.1E||---------------------------------|---------------------------------|
+ H||---------------------------------|---------------------------------|
Gtr.2G||---------------------------------|---------------------------------|
D||---------------------------------|---------------------------------|
A||-7-------8-------7-------12------|-6-------------------------------|
E||-5---5-5-5---5-5-5---5-5-10------|-8---8-8-8---8-8-8---8-8-8---8-8-|
Gtr.1E||---------------------------------|---------------------------------|
+ H||---------------------------------|---------------------------------|
Gtr.2G||---------------------------------|---------------------------------|
D||---------------------------------|---------------------------------|
A||-7-------8-------7-------12------|--10----------4------------------|
E||-5---5-5-5---5-5-5---5-5-10------|--8-----------2------------------|
RIFF 2 (play 2 times):
Gtr.1E||---------------------------------|---------------------------------|
+ H||---------------------------------|---------------------------------|
Gtr.2G||---------------------------------|---------------------------------|
D||---------------------------------|-----------------7-------8-------|
A||-9-------10------9-------8-------|-9-------7-------7-------8-------|
E||-----7-------7-------7-------7---|-----5-------5---5-------6-------|
Gtr.1E|----------------------------------|---------------------------------||
+ H|----------------------------------|---------------------------------||
Gtr.2G|----------------------------------|---------------------------------||
D|----------------------------------|-----------------5-------7-------||
A|--9-------10------9-------8-------|-9-------7-------5-------7-------||
E|------7-------7-------7-------7---|-----5-------3---3-------5-------||
RIFF 3:
Gtr.1E|----------------------------------|---------------------------------|
+ H|----------------------------------|---------------------------------|
Gtr.2G|----------------------------------|---------------------------------|
D|------------------2---------------|-----------------2---------------|
A|--5-------4---------------5---4---|-5-------4---------------5-------|
E|------2-------2-------2-----------|-----3-------3-------3-------3---|
. . . . . . .

Gtr.1E|----------------------------------|---------------------------------|
H|----------------------------------|---------------------------------|
G|----------------------------------|---------------------------------|
D|--2-------------------------------|---------------------------------|
A|------------------4---------------|-2---------------1---------------|
E|------2---2---2-------2---2---2---|-----2---2---2-------2---2---2---|
| . . . . . . | . . . . . . |
Gtr.2E|----------------------------------|---------------------------------|
H|----------------------------------|---------------------------------|
G|----------------------------------|---------------------------------|
D|--5---------------2---------------|---------------------------------|
A|----------------------------------|-5---------------4---------------|
E|------2---2---2-------2---2---2---|-----2---2---2-------2---2---2---|
. . . . . . . . . . . .

Gtr.1E|----------------------------------|---------------------------------|
H|----------------------------------|---------------------------------|
G|----------------------------------|---------------------------------|
D|--2-------------------------------|---------------------------------|
A|------------------4---------------|-1-----------5-------------------|
E|------2---2---2-------2---2---2---|-----2---2---3-------------------|
| . . . . . . | . . > |
Gtr.2E|----------------------------------|---------------------------------|
H|----------------------------------|---------------------------------|
G|----------------------------------|---------------------------------|
D|--5-------------------------------|---------------------------------|
A|------------------2---------------|-4-----------5-------------------|
E|------2---2---2-------2---2---2---|-----2---2---3-------------------|
RIFF 4:
Gtr.1E|---------------------------------|---------------------------------|
Gtr.2H|---------------------------------|---------------------------------|
Bass G|-9-------------------------------|---------------------------------|
D|-9-------------------------------|-----------------7---------------|
A|-7---7-7-7---7-7-7---7-7-7---7-7-|-7---7---9---10-----10---9---10--|
E|-.---.-.-.---.-.-.---.-.-.---.-.-|-.-------------------------------|