.

( )

A                                                   

ACA - epe oo

Caaa ay p, a oo ec...

Intro
E5 G5
|------------------------------------------------------------------------|-
|-------------------------3----------------------------------------------|-
|---------------------4--------------------------4-----------------------|-
|------------2---5----------------------2---5-----------p-p-p----p-p-p---|-
|--0--2--5--------------------0--2--5---------------5--5^4^3^2--5^4^3^2--|-
|------------------------------------------------------------------------|-

Riff 1.
E5 G5 F#5 F5 E5 G5 F#5 F5 E5
|-------------------------------------------------------------|------------
|-------------------------------------------------------------|------------
|-------------------------------------------------------------|------------
|--------------------------------------0----------------------|------------
|------------------------------------2--------4-------3-------|------------
|--0-0-0-0-3-3-3-3-2-2-2-2-1-1-1-1-0-----3-2----2--1----1--0--|------------

Riff 2.
E5 G5 F#5 F5 E5 D5 C#5 C5
|-----------------------------------------------------------------|--------
|-----------------------------------------------------------------|--------
|-----------------------------------------------------------------|--------
|-----------------------------------------------------------------|--------
|-----------------------------------------5-5-5-5-4-4-4-4-3-3-3-3-|--------
|-0-0-0-0-3-3-3-3-2-2-2-2-1-1-1-1-0-0-0-0-------------------------|--------

Riff 3.
E5 G5 F#5 F5 H5
|-----------------------------------------------------------------|-------|
|-----------------------------------------------------------------|-------|
|-----------------------------------------------------------------|-------|
|-----------------------------------------------------------------|-------|
|---------------------------------2-2-2-2-2-2-2-2-2---------------|-------|
|-0-0-0-0-3-3-3-3-2-2-2-2-1-1-1-1---------------------------------|-------|

Riff 4.
y epa p, pa ao oyaec. a o o e oo...
E5 C5
|-------------------------------------------------------------------------|
|-------------------------------------------------------------------------|
|-------------------------------------------------------------------------|
|-------------------------------------------------------------------------|
|--------------------------/3-3-3-3--3-3-3--3-3-3-3-----------------------|
|-0-0-0-0--0-0-0--0-0-0-0-------------------------------------------------|

Riff 5.
y e oe oo,o o a ea c oa. x cy ex p,
caepa yeae,o oa a oa,o co cec paa ...
E5 G5 A5 H5 E5 G5 A5 H5
|-------------------------------------------------------------------------|
|-------------------------------------------------------------------------|
|-------------------------------------------------------------------------|
|------------------0------------------------------------------------------|
|---0^2---2^3----3--------------------------------------------------------|
|-0-----3------5-----7-7-7-7----0b1r--3b4r---5b6r---7-7-7-7-7-7-7-7-7-----|

Riff 6
(pop)
|--------------------------------------------------------------------------
|--------------------------------------------------------------------------
|--------------------------------------------------------------------------
|--------------------------------------------------------------------------
|-------0-1-2------0-1-2-0----------0-1-2----------------------------------
|-0-0-3--------0-3---------3--0-0-3--------0-3--0-2------------------------

epx apa aae cec paac opy o, oope
aca.
---------------------------------------------------------|
---------------------------------------------------------|
---------------------------------------------------------|
----------------------------------14-12--14-12--14-12----|
--7b8rb8rb8r--10br(oo..)------------------------------|
--0------------------------------------------------------|

Tabbed by Dmoroz+Ksavera 8.11.97

##INTRO

E5 G5 F5# F5
w RIFF1
oa oe, o o , a e, o o - o.
oa oec, o e aa ep oc o ,
E5 D5 C5# C5
w RIFF2
oa oe ypo eae a, e oopae c ,
E5 G5 F5# F5
w RIFF3
oa oe, o o yce ca pa
H5
epe oo!

E5 C
w RIFF4
a e ee o. a!
o co o oe e. a!
e pacca c. a!
C cea ee oo.

E5 G5
w RIFF5
Co opoo, c opo,
A5 H5
o oae ROCK.
E5 G5
w RIFF5
epo opoo oae a,
A5 H5 E5
o pa e o e o.

RIFF6

a aee...

oa ee py cae co, o e o eooe oa,
oa o py o a py cay o pa,
oa o y pacop coa, a cyoc ce p,
oa oe, o o yce ca pa
epe oo!

a e ee o. a!
o co o oe e. a!
e pacca c. a!
C cea ee oo.

Co opoo, c opo,
o oae PO.
epo opoo oae a,
o pa e o e o.
Co y cpe, epe o oep,
O ce cee opae ep.
o, o po e a coo oc,
pooae y opye e.

opa ap poo!
opa cepa ceo!

oa oe, o o , a e, o o - o.
oa oec, o e aa ep oc o ,
oa oe ypo eae a, e oopae c ,
oa oe, o o yce ca pa
epe oo!

For quesions, comments mail dmoroz@cs.msu.su
Russian Rock Guitar+Bass page http://www.art.ru/~dmoroz/