.

( )

A                                                   

ACA - eap ee

Intro :

|---------------------------------------------------7-------------|
|---------5--3------------5--3-----------5--3-------7---7--8-10-7-|
|----0---------------0--------------0---------------8-------------|
|--4---4-----------4---4----------4---4-------------9-------------|
|---------------------------------------------------9-------------|
|---------------------------------------------------7-------------|

|-7----10--9-7--7--7------------------------------------|
|--------------------10-10----7----7--------------------|
|------------------------------9------9-7---------------|
|-------------------------------------------9-----------|
|-------------------------------------------------------|
|-------------------------------------------------------|

Hm
eape ee ceo eo,
eap ceo yc.
A F#
Hoe e a po,
Hm
pa ep ypc.
Hm
Ce, a, oay, apxa opep
Hm
Ec oa o co p.
A F#
opo apa o,
Hm
Ca ay o.

|--------------10-9-7-10-9-10--------------------------------|
|--7-/7---8-------------------10---7-7-----------------------|
|-----------------------------------9---9-7------------------|
|-------------------------------------------9----------------|
|------------------------------------------------------------|
|------------------------------------------------------------|

apa oa .... py, y-y py,

A F# Hm A F#
C, xpae xopooa py ee coa, oop a
Hm
yx o, a py, a e aa e e,
A F# Hm
ax ax pyaoo aa apy oce
Hm
o a paxo exx ae, o e-o a oxopo
A F# Hm
ec, e ca, ca aay .
A F# Hm
Pac opo ocpa ox ap,
A F# Hm
cpo yoe eo caee ypex .
A F# G F#
xo o ocxo ee co oo, a aa ee co cap
A F# Hm
aa e, y oap.
Em F# Em F#
eap aae , oo ce opoc epe e
Em F# Em C Hm
eap aae , oa oe e, e, e, e

--------------------------------------------------------------------------------

 

---------------------------------------------------7---------------
----0----5--3-------0----5--3------0----5--3-------7----787--------
--4---4-----------4---4----------4---4-------------8---------------
---------------------------------------------------9---------------
---------------------------------------------------9---------------
---------------------------------------------------7---------------

-7----10--9-7--10-9-7-------7----7---------------------------------
------------------------------10------7----7-----------------------
----------------------------------------9------9-7-----------------
----------------------------------------------------9--------------
-------------------------------------------------------------------
-------------------------------------------------------------------