.

( )

A                                                   

 

ACA - CE E

Intro
-----------------------------------------------------------------
-----------------------------------------------------------------
-------------------------------------12p9h12---------------------
---10-12-12/14-12p10h12--10-12-12/14---------12p10p12------------
-----------------------------------------------------------------
-----------------------------------------------------------------

-----------------------------------------------------------------
-----------------------------------------------------------------
--------------------------------5/7\5----------------------------
---7-5-7----------------------5-------7--------------------------
----------7p5p3h5-------3-5-7------------------------------------
--------------------3-5------------------------------------------

Am D
oe Coe,
Am D
ee oyx,
Am D
aoc y.
Am D
cyae eep.
Am D
C?
Am D
ac y!

oa -
epao ea,
oopoo e y e.
ce.
xoe oo,
xoe ea,
xoe ac ca o ypa.
o , , o, pa.

----5-----7-----8-----7----5----7----8----7-----
------6-----6-----6-----6----5----5----5----5---
--------7-----7-----7-----7----5----5----5----5-
------------------------------------------------
------------------------------------------------
------------------------------------------------
Dm Am
opy ceo pax p,

----5-----7-----8-----7----7----10----7----10----
------6-----6-----6-----6----8-----8----8----8---
--------7-----7-----7-----7----9-----9----9----9-
-------------------------------------------------
-------------------------------------------------
-------------------------------------------------
Dm Em
oy co co, co ,

----5-----7-----8-----7----5----7----8----7-------
------6-----6-----6-----6----5----5----5----5-----
--------7-----7-----7-----7----5----5----5----5---
--------------------------------------------------
--------------------------------------------------
--------------------------------------------------
Dm Am
ea a o ope oo,
G F# F Am
e co pa ce e.

Solo.
---------------------------------------------8-----------------
-----------------------------------------------9---------------
-----2-4-4/5~~~----2-4-----------2-4-4/9~~~------9-------------
---2-------------2-----4/6~~~--2-------------------/10--6------
-3-------------3-------------3-----------------------------/9--
---------------------------------------------------------------

apa e
Pacpoe aa
e, o ycye o.
ecya apoaa co
Pacae yecec po.
opoe aa,
aee yae,
o oe o ee
a, yo e a e e.

opy ceo pax p,
oy co co, co ,
ea a o ope oo,
e co pa ce e.