.

.

( )

A                                                   

Aaa pc
\"a a oe\"
AM G7 C E7
e--0-----0-----|--------3--1--|--0-----------|--------------|
B--1--------1--|--0-----------|-----3--1--3--|--0--0--1--0--|
G--2-----------|-----0--------|--------------|--------------|
D--2--2--------|--------------|--------------|--------------|
A--0-----------|--------------|--3-----------|--------------|
E--------------|--3-----------|--------------|--0-----------|
AM G7 C E7
e--------0-----|--------3--1--|--0-----------|--0-----4-----|
B-----------1--|--0-----------|-----3--1--3--|-----0-----3--|
G--2-----------|-----0--------|--------------|-----1-----4--|
D-----2--------|--------------|--------------|--------------|
A--0-----------|--------------|--3-----------|--------------|
E--------------|--3-----------|--------------|--0-----------|
Solo of BASSES: pa 2-a paa
AM G7
e-----------------------|-----------------------|
B-----------------------|-----------------------|
G-----------------------|-----------------------|
D-----------------------|-----------------------|
A--0--------0-----0-----|-----------------------|
E-----0--3-----0-----4--|--3--0--2--3--0--2--3--|
C E7
e-----------------------|-----------------------|
B-----------------------|-----------------------|
G-----------------------|-----------------------|
D--------------------0--|--2-----0--2--0--------|
A--3-----0--3--2--3-----|-----2-----------3--2--|
E-----0-----------------|-----------------------|
Guitar solo: pa 2-a paa
AM E7 AM E7
e--5--------5--|--7-----8--7--|--5-----3--1--|--0-----4-----|
B-----5--5-----|-----5--------|-----5--------|-----0-----3--|
G-----5--------|-----7--------|-----5--------|-----1-----4--|
D--------------|--------------|--------------|--------------|
A--0-----------|--------------|--0-----------|--------------|
E--------------|--0-----------|--------------|--0-----------|
AM E7 AM E7
e--5--------5--|--7-----8--7--|--5-----3--1--|--0-----4-----|
B-----5--5-----|-----5--------|-----5--------|-----0-----3--|
G-----5--------|-----7--------|-----5--------|-----1-----4--|
D--------------|--------------|--------------|--------------|
A--0-----------|--------------|--0-----------|--------------|
E--------------|--0-----------|--------------|--0-----------|
Refrain:
Am G7 C
e--5--------0-----|-----------3--1--|--0--------------|
B-----5--------1--|--0--------------|--------3--1--3--|
G-----5-----------|--------0--------|-----0-----------|
D--------2--------|-----0-----------|-----------------|
A--0--------------|-----------------|--3--------------|
E-----------------|--3--------------|-----------------|
E7...
e-----------------|-----0-----0-----|-----------3--1--|
B--0-----0--1--0--|-----1--------1--|--0--------------|
G-----1-----------|--2--------------|--------0--------|
D-----2-----------|--------2--------|-----0-----------|
A-----------------|--0--------------|-----------------|
E--0--------------|-----------------|--3--------------|
e-----------------|--0--------------|-----0-----0-----|
B--0-----0--1--0--|-----0--3--1--0--|-----1--------1--|
G-----1-----------|-----1-----------|--2--------------|
D-----2-----------|-----------------|--------2--------|
A-----------------|-----------------|--0--------------|
E--0--------------|--0--------------|-----------------|
e-----------3--1--|--0--------------|-----------------|
B--0--------------|--------3--1--3--|--0-----0--1--0--|
G--------0--------|-----0-----------|-----1-----------|
D-----0-----------|-----------------|-----2-----------|
A-----------------|--3--------------|-----------------|
E--3--------------|-----------------|--0--------------|
e-----0-----0-----|-----------3--1--|-----------------|
B-----1--------1--|--0--------------|--0-----0--1--0--|
G--2--------------|--------0--------|-----1-----------|
D--------2--------|-----0-----------|-----2-----------|
A--0--------------|-----------------|-----------------|
E-----------------|--3--------------|--0--------------|
e--0-----4-----|--5--|
B-----0-----3--|--5--|
G-----1-----4--|--5--|
D--------------|--4--|
A--------------|--0--|
E--0-----------|-----|