Аккорды для всех - сайт народных аккордов
 
Аккорды и тексты песен
Guitar Pro табулатуры
Уроки игры на гитаре
Таблица аккордов
Бесплатные программы для музыкантов
Фотографии музыкантов
Видеоклипы
Каталог ссылок
Обратная связь
На главную страницу
 
 
     
 
 

Аккорды, песни, текст, табулатура



Земфира - Черно-белая любовь (2 вариант)


Am            D           G            Am(riff2)
E|---------------------------3--------3----------------|
B|-------------------5/7-7---3--------3----------------|
G|---------------7---5/7-7---4--b5r4--4---b8r7-5-------|
D|-7-7---5h7-7---7-7-----7---5-5----5-5---7------7-5-7-|
A|-7---7-----7---5-------------------------------------|
E|-5---------5-----------------------------------------|

Verse1:
               Am    D                 G              Am(riff2)
Чёрно-белая любовь моя расстреляла в упор  твои мысли и сны.
              Am      D                  G           Am(riff2)
Разноцветными меня тебя ты мой нежный мотор, с предыдущей весны.

Chorus:
                Fsus2          Csus2          Dsus2   Asus2
Я успокоюсь, ла ла-ла-ла-ла ла ла-ла-ла-ла ла               (x3)
                Fsus2          Csus2          Dsus2   E
Я успокоюсь, ла ла-ла-ла-ла ла ла-ла-ла-ла ла

   Fsus2         Csus2         Dsus2         Asus2
E|-------3---------------------------0--------------------|
B|-----6----6----------3-----------3----3----------0------|
G|---5--------5------5----5------2--------2------2----2---|
D|-3---------------5--------5--0---------------2--------2-|
A|---------------3---------------------------0------------|
E|--------------------------------------------------------|

Verse2:

Самушедшие мечты  мои  расскажу в телефон и залезу в долги.
Помоги мне угадать тебя, мой доверчивый сон, если можно не лги.

Chorus:
Verse1:
Chorus:
Chorus:

 

 

 
 
 
     
 
 
 

инженеров.netДомашняя страницаНезависимый морской сайтПортал для гитаристовПриколы, юмор, анекдоты

 
обновлен 24.12.2011
в сети с 06.03.2004
 
 
Неофициальный морской сайт Домашняя страница Яндекс цитирования Internet Map Rambler's Top100
Учет посещений на народе

все тексты песен являются собственностью их автора. песени взяты из открытых источников. на сайте размещены с целью ознакомления. при использовании материалов сайта ссылка на сайт обязательна.

по всем вопросам стучитесь в асю или пишите на электропочту

идея, дизайн, редактирование Леха ZaG Загрядский

zagstudio