Аккорды для всех - сайт народных аккордов
 
Аккорды и тексты песен
Guitar Pro табулатуры
Уроки игры на гитаре
Таблица аккордов
Бесплатные программы для музыкантов
Фотографии музыкантов
Видеоклипы
Каталог ссылок
Обратная связь
На главную страницу
 
 
     
 
 

Аккорды, песни, текст, табулатура



Воскресенье - Кто виноват? (2 вариант)


Вступление:
E|-10-9-/7------|-10h12-9h10-/7------|-------------------------|
B|---------10р8-|---------------10р8-|-10b11-8-10---8---------8|
G|--------------|--------------------|------------9---7h9-7h9--|
D|--------------|--------------------|-------------------------|
A|--------------|--------------------|-------------------------|
E|--------------|--------------------|-------------------------|

E|-------------------||
B|-------------------||
G|--7h9-----7-------*||
D|------------------*||
A|-------------------||
E|-------------------||

Solo:
E|--12/10----12---12/10-----|--10----12--10--------------------|
B|--------12------------12--|-----12--------11/12--------------|
G|--------------------------|----------------------------------|
D|--------------------------|----------------------------------|
A|--------------------------|----------------------------------|
E|--------------------------|----------------------------------|

E|--10----------------|----------------------------------------|
B|-----12/10-8-10---8-|----3-3h5-----10-11b12h10-----10----11--|
G|----------------9---|--4---------12-------------12----12-----|
D|--------------------|----------------------------------------|
A|--------------------|----------------------------------------|
E|--------------------|----------------------------------------|

E|-----12-10-12--14/10----------10-----------------------------|
B|--12-----------------12-11/12----12/10--8--------------------|
G|------------------------------------------9------------------|
D|-------------------------------------------------------------|
A|-------------------------------------------------------------|
E|-------------------------------------------------------------|

E|-15-------14-------15-------14-------------------------------|
B|----17-------17-------17-------17----------------------------|
G|-------16-------16-------16-------16-------------------------|
D|-------------------------------------------------------------|
A|-------------------------------------------------------------|
E|-------------------------------------------------------------|

E|--15-------14------------17----------------------------------|
B|-----17-------17------17----17b18--17b18--17b18--17b18-------|
G|--------16---------16----------------------------------------|
D|-------------------------------------------------------------|
A|-------------------------------------------------------------|
E|-------------------------------------------------------------|

E|-17----------------------------------------------------------|
B|----15-12/10----------5b6-/10-8------------------------------|
G|-------------12-7b8-7-----------9----------------------------|
D|-------------------------------------------------------------|
A|-------------------------------------------------------------|
E|-------------------------------------------------------------|

E|-------------------------------------------------------------|
B|----3-5------------------------------------------------------|
G|-/4--------4---4-----6---6------9----9-----------------------|
D|--------/5---5----/7---7----/10---10-------------------------|
A|-------------------------------------------------------------|
E|-------------------------------------------------------------|

E|------5------------------------|------5--3-3-5---7-7-7-7-----|
B|---------8---7--5--------------|--3h5------------------------|
G|-----------------------4---4---|-----------------------------|
D|---/7------7--------/5---5-----|-----------------------------|
A|-------------------------------|-----------------------------|
E|-------------------------------|-----------------------------|

....АаааааАААууууААААаууууААААа БадабаадааабууддуууДааааааа....
E|-------------------------------------------------------------|
B|-------------------------------------------------------------|
G|-14b15r14--12----15-14-12-----------12-15-14-12--------------|
D|--------------14----------14--12-14-------------14-----------|
A|-------------------------------------------------------------|
E|-------------------------------------------------------------|

 H7       Em
 Кто виноват, что ты устал,
         G
 Что не нашел, чего так ждал,
          C              H
 Все потерял, что так искал,
             Em
 Поднялся в небо и упал?

 И чья вина, что день за днем
         G
 Уходит жизнь своим путем,
       C           H
 И одиноким стал твой дом,
          Em
 И пусто за твоим окном?

Припев:

            G           Am
     И меркнет свет, и молкнут звуки,
        C           D
     И новой муки ищут руки.
     G           Am
     Если боль твоя стихает,
       C        D         H7   Em Am Em
     Значит- будет новая беда.

 Кто виноват, скажи- ка брат,
 Один женат, другой богат,
 Один смешон, другой влюблен,
 Один дурак, другой твой враг.
 И чья вина, что там и тут
 Друг- друга ждут и тем живут,
 Но скучен свет и ночь пуста,
 Забиты теплые места.

Припев.

 Кто виноват и в чем секрет,
 Что горя нет и счастья нет,
 Без поражений нет побед,
 И равен счет - удачи нет.
 И чья вина, что ты один,
 И жизнь одна и так длинна,
 И так скучна, а ты все ждешь,
 Что ты когда- нибудь умрешь.

Припев.

 

 

 
 
 
     
 
 
 

инженеров.netДомашняя страницаНезависимый морской сайтПортал для гитаристовПриколы, юмор, анекдоты

 
обновлен 24.12.2011
в сети с 06.03.2004
 
 
Неофициальный морской сайт Домашняя страница Яндекс цитирования Internet Map Rambler's Top100
Учет посещений на народе

все тексты песен являются собственностью их автора. песени взяты из открытых источников. на сайте размещены с целью ознакомления. при использовании материалов сайта ссылка на сайт обязательна.

по всем вопросам стучитесь в асю или пишите на электропочту

идея, дизайн, редактирование Леха ZaG Загрядский

zagstudio