Аккорды для всех - сайт народных аккордов
 
Аккорды и тексты песен
Guitar Pro табулатуры
Уроки игры на гитаре
Таблица аккордов
Бесплатные программы для музыкантов
Фотографии музыкантов
Видеоклипы
Каталог ссылок
Обратная связь
На главную страницу
 
 
     
 
 

Аккорды, песни, текст, табулатура



Воскресенье - Я сам из тех


Гитара 1.
  G               B7              Em              A7/E    D
E|--------3---------------2------|-------0------3-------2------|
B|----0-------0-------0-------0--|----0-----0-------2-------3--|
G|--0---0---0---0---2---2---2---2|--0---0-0---0---0---0---2---2|
D|-------------------------------|--------------2-------0------|
A|----------------2--------------|-----------------------------|
E|3------------------------------|0----------------------------|


  G               B7                 Em              A7/E
E|-------3--------------2------|--------0---------------3------|
B|---0-------0------0-------0--|----0-------0-------2-------2--|
G|-0---0---0---0--2---2---2---2|--0---0---0---0---0---0---0---0|
D|-----------------------------|2---------------2--------------|
A|---------------2-------------|-------------------------------|
E|3----------------------------|-------------------------------|


  D               D7              G               B7
E|--------2---------------2------|--------3-------------2------|
B|----3-------3-------1-------1--|----0-------0-----0-------0--|
G|--2---2---2---2---2---2---2---2|--0---0---0---0-2---2---2---2|
D|0---------------0--------------|-----------------------------|
A|-------------------------------|---------------2-------------|
E|-------------------------------|3----------------------------|


  Em              A                  D               C       D
E|------0---------------0------|--------2p0-----0-------2------|
B|--0-------0-------2-------2--|----3-------3-------3-------3--|
G|-0--0---0---0---2---2---2---2|--2---2-------2---0---0---2---2|
D|2----------------------------|0-----------------------0------|
A|--------------0--------------|----------------3--------------|
E|-----------------------------|-------------------------------|



Гитара 2.
Соло:
     G           B7              Em       A7/E    D
E|---------------------------|---------------------------------|
B|--7h8~--------8--7h-10---8-|--8~-------8---7h8p7-------------|
G|---------------------------|----------------------9--7-------|
D|---------------------------|---------------------------------|
A|---------------------------|---------------------------------|
E|---------------------------|---------------------------------|


  G         B7              Em       A7/E
E|------------------------|-------------------|
B|------8~---8--7h-10---8-|--8~---------------|
G|-7~---------------------|-------------------|
D|------------------------|-------------------|
A|------------------------|-------------------|
E|------------------------|-------------------|


  D         D7              G         B7
-+--------------8--8---7-|--7------7--7----8--7----------------|
--10~-------10-----------|-----------------------10------------|
-+-----------------------|-------------------------------------|
-+-----------------------|-------------------------------------|
-+-----------------------|-------------------------------------|
-+-----------------------|-------------------------------------|

                                                  Конец Соло
  Em          A                  D          C     D
-+------------------7---------|--------------------------------|
--8~-----10r8h10-------10--8--|--7~----------------------------|
-+----------------------------|---------9r7-9-7---7h9p7--------|
-+----------------------------|--------------------------------|
-+----------------------------|--------------------------------|
-+----------------------------|--------------------------------|

G              B7                  Em    A7/E  D
  Я сам из тех, кто спрятался за двери,
G              B7              Em   A7/E
  Кто мог идти, но дальше не идет,
D                 D7                 G   B7
  Кто мог сказать, но только молча ждет,
             Em  A                 D     C  D
  Кто духом пал    и ни во что не верит.

  Моя душа беззвучно слезы льет,
  Я песню спел - она не прозвучала,
  Устал я петь, мне не начать сначала,
  Не сделать первый шаг и не смотреть вперед.

  Я тот, чей разум прошлым лишь живет,
  Я тот, чей голос глух и потому
  К сияющим вершинам не зовет,
  Я добр, но добра не сделал никому.

  Я птица слабая, мне тяжело лететь,
  Я тот, кто перед смертью еле дышит,
  И как ни трудно мне об этом петь,
  Я все-таки пою - ведь кто-нибудь услышит.

Иногда переход Em  A7/E D играется так:

  Em              A7/E    D
E|---------0-------3-------2p0-----|
B|-----0-------0-------2-------3---|
G|---0---0---0---0---0---0-------2-|
D|-----------------2-------0-------|
A|---------------------------------|
E|-0-------------------------------|

 

 

 
 
 
     
 
 
 

инженеров.netДомашняя страницаНезависимый морской сайтПортал для гитаристовПриколы, юмор, анекдоты

 
обновлен 24.12.2011
в сети с 06.03.2004
 
 
Неофициальный морской сайт Домашняя страница Яндекс цитирования Internet Map Rambler's Top100
Учет посещений на народе

все тексты песен являются собственностью их автора. песени взяты из открытых источников. на сайте размещены с целью ознакомления. при использовании материалов сайта ссылка на сайт обязательна.

по всем вопросам стучитесь в асю или пишите на электропочту

идея, дизайн, редактирование Леха ZaG Загрядский

zagstudio