Аккорды для всех - сайт народных аккордов
 
Аккорды и тексты песен
Guitar Pro табулатуры
Уроки игры на гитаре
Таблица аккордов
Бесплатные программы для музыкантов
Фотографии музыкантов
Видеоклипы
Каталог ссылок
Обратная связь
На главную страницу
 
 
     
 
 

Аккорды, песни, текст, табулатура



Високосный год - Лучшая песня о любви 


вступление:
   Cm        Fm
1|-------------3-1------||-----
2|---4-3-4-----1-1-1----||-----
3|---5-5--5----1-1--1--*||-----
4|---5-5---5---------3--||-1--- [барабаны]
5|-3-------------------*||---3-
6|-----------1----------||-----

проигрыш 1:
  Cm                   Fm
1|-------------------|---------
2|---4p3-------4p3---|-----4---
3|-5-----5---5-----5-|---5---5-
4|---------5---------|-6-------
5|-------------------|---------
6|-------------------|---------

  Cm                   Fm
1|-------------------|-------------
2|---4p3-------4p3---|-6-----------
3|-5-----5---5-----5-|---5-5-5p3-5-
4|---------5---------|-------------
5|-------------------|-------------
6|-------------------|-------------


куплет 1:
Cm Fm      G Cm              Fm      Ab  G
4|-------0---|-1-0---------|---------1p-(0)-
5|---0-3-----|-----3-------|-----1-3--------
6|-1-------3-|-------3-1-3-|-1-3------------
..слушай....зла...........в душу........сна.

Ab Cm     Ab Cm         Fm Cm         G       Cm
4|--1-0-----|-----1-0-----|-1-0-----|--------------
5|------3---|-0-3-----3---|-----3---|--------(3)---
6|--------4-|-----------1-|-------4-|-3-3----------
сладости....линии........радости.....называть.имени

проигрыш 1

куплет 2

(во втором и третьем куплетах партии лидер-гитары
не совсем такие, как в первом, но этими незначительными
отличиями можно пренебречь)

соло 1 - кое-где не уверен в правильности:..

1|----------------------------7n-(нат. флажолет)-
2|------------------6-----8----------------------
3|-/5h8p7p5---5h7-8---5/7------------------------
4|----------5----------------------1-0-----------
5|-------------------------------------3-1-------
6|-----------------------------------------4-3-1-

1|-----------------------------------------------
2|---3-4-3-6p4-4-3---3---------------------------
3|-5---------------5---4h5p4-------------5---3---
4|---------------------------6-5-5-5-3-3---6---5-
5|-----------------------------------------------
6|-----------------------------------------------

1|-----------------------------------------
2|-bend------------------------------------
3|-4(5)------------------------------------
4|------5----------------------6-5-4-------
5|--------3p2p1-4p3p2--5-3-5-6-------7-6-5-
6|-----------------------------------------

1|-------------------------------------------------
2|-------------------------------------------------
3|-------------------------5-4h5-0-/6-6p5h6--------
4|-5-4-3-6-5-4-8-7-6-9-8-7------------------/5p4h5-
5|-------------------------------------------------
6|-------------------------------------------------

куплет 3

проигрыш 2:
(почти то же самое что и 1 но ниже на октаву)

  Cm                Fm
4|---1-0------1-0---------------1---*|-1---
5|-3-----3--3-----3---------3-3---3-*|---3-
6|------------------1-1-4-4----------|-----

Ab Cm       Ab Cm
5|--/6p5-3---|--/6-p5-3-
..жизнь...красивее......

 Fm                       Cm
Чем сидеть на облаке и свесив ножки вниз,
Ab          G           Cm
Друг друга называть по имени

проигрыш 2 без последних двух нот

окончание:
3|-/8-8-8-7-5-----------|-/5-5-5-3---------5---
4|------------8-6-8-6-5-|----------6-5-3-5-----

3|---------------------------|---------0-------------------
4|---------------1-0---------|-----0-1---3-0h1-------------
5|-------------3-----3-------|-1-3-------------3-1-------3-
6|-1-1-1-1-4-4---------3-1-3-|---------------------3-1-3---

 

 

 
 
 
     
 
 
 

инженеров.netДомашняя страницаНезависимый морской сайтПортал для гитаристовПриколы, юмор, анекдоты

 
обновлен 24.12.2011
в сети с 06.03.2004
 
 
Неофициальный морской сайт Домашняя страница Яндекс цитирования Internet Map Rambler's Top100
Учет посещений на народе

все тексты песен являются собственностью их автора. песени взяты из открытых источников. на сайте размещены с целью ознакомления. при использовании материалов сайта ссылка на сайт обязательна.

по всем вопросам стучитесь в асю или пишите на электропочту

идея, дизайн, редактирование Леха ZaG Загрядский

zagstudio