Аккорды для всех - сайт народных аккордов
 
Аккорды и тексты песен
Guitar Pro табулатуры
Уроки игры на гитаре
Таблица аккордов
Бесплатные программы для музыкантов
Фотографии музыкантов
Видеоклипы
Каталог ссылок
Обратная связь
На главную страницу
 
 
     
 
 

Аккорды, песни, текст, табулатура



Van Halen - Eruption


E||---------------------|-------------------------|
B||---------------------|-------------------------|
G||---------------------|--2--------------------5-|
D||----------------x----|--2--------------5--7----|
A||----------------x----|--0--------7r-7b---------|
E||------------------14/|-------------------------|

E|-------------5---------0---------0---------0---------0-|
B|-----------5-5-8h5h0-----8h5h0-----8h5h0-----8h5h0-----|
G|-7r-5h-7b------------8---------8---------8---------8---|
D|-------------------------------------------------------|
A|-------------------------------------------------------|
E|-------------------------------------------------------|

E|-----------5-------------------------------|
B|-8h5h0---5---8h5---5-----------------------|
G|-------7---------7b--7r5---4-5-7-5-7h5h4---|
D|-------------------------6---------------7-|
A|-------------------------------------------|
E|-------------------------------------------|

E|-------------------------------|
B|-------------------------------|
G|-4h7h5h4---4h7h5h4---4h7h5h4---|
D|---------7---------7---------7-|
A|-------------------------------|
E|-------------------------------|

E|---------------------------------|-----------------------|
B|---------------------------------|-----------------------|
G|-4-------------------------------|---------------------2-|
D|---7-6-5-4-----------------------|---------------------2-|
A|-----------7-6-5-3/15-------15/0-|------0---0---0---0--0-|
E|----------------------0----------|-----------------------|

E|-----------------------|
B|------3----3----3/--19-|
G|-2----0----2-----------|
D|-2----0----0-----------|
A|-0---------------------|
E|------3----------------|

E|-----17-----17-----17-----17------------17-20~-21----19/20-|
B|-20b----20b----20b----20b----20b---x-20-----------19-------|
G|---------------------------------0-------------------------|
D|-----------------------------------------------------------|
A|-----------------------------------------------------------|
E|-----------------------------------------------------------|

E|-17-------------------17-20r-17----17--------------|
B|-----19-19r-19b17-20b-----------20----20r17----20r-|
G|--------------------------------------------19-----|
D|---------------------------------------------------|
A|---------------------------------------------------|
E|---------------------------------------------------|

E|---------------------------------------16h17h20-|
B|---17-20r17----20r-20b--------16h18h20----------|
G|------------19----------12/18-------------------|
D|------------------------------------------------|
A|------------------------------------------------|
E|------------------------------------------------|

E|------------14-17-20h17-20h-|
B|-14h17h20-x-----------------|
G|----------------------------|
D|----------------------------|
A|----------------------------|
E|----------------------------|

E|-17h14h15h14------------------------------------------|
B|-------------17h14----14----------------------15r-15b-|
G|-------------------17----17r14h17-17h14---------------|
D|-----------------------------------------x------------|
A|-----------------------------------------x------------|
E|-------------------------------------------0----------|

E|-----12-12-12-16-16-16-19-19-19-19/17-17-17-16-16-16-16-16-16|
B|-15b---------------------------------------------------------|
G|-------------------------------------------------------------|
D|-------------------------------------------------------------|
A|-------------------------------------------------------------|
E|-------------------------------------------------------------|

E|-14-14-14-16-16-16-12-12-12-16-16-16-19-19-19-|
B|----------------------------------------------|
G|----------------------------------------------|
D|----------------------------------------------|
A|----------------------------------------------|
E|----------------------------------------------|

E|-17-17-17-16-16-16-17-17-17-|
B|----------------------------|
G|----------------------------|
D|----------------------------|
A|----------------------------|
E|----------------------------|

E|-14-14-14-16-16-16-12-12-12-14/10-10-10-12/10/9-|
B|------------------------------------------------|
G|------------------------------------------------|
D|------------------------------------------------|
A|------------------------------------------------|
E|------------------------------------------------|

E|-9-9-10-9/7-7-7-9-7/-|
B|---------------------|
G|---------------------|
D|---------------------|
A|---------------------|
E|---------------------|

E|-5-5-5-7-5/3-3-3-5-3/1-1-1-1-1-1-1-1-1h3h1-0---------|
B|---------------------------------------------5-3-1-0-|
G|-----------------------------------------------------|
D|-----------------------------------------------------|
A|-----------------------------------------------------|
E|-----------------------------------------------------|

E|------------------------|--------|
B|------------------------|--------|
G|-4-2r----1--------------|--------|
D|------------------------|--------|
A|--------------x---------|--------|
E|--------------x-19-0----|------0-|

E|--------------------------------------------|
B|---x----------------------------------------|
G|---x---------------5h0-------5h0-----10---9-|
D|---x---5h7-7-7-7-7-----7-7-7-----7/8----8---|
A|---x-7--------------------------------------|
E|--------------------------------------------|

E|-------------------------------------------------------------|
B|-------------------------------------------------------------|
G|--------------------------------------------0-x--------------|
D|-9h11h9h11h9h11h9h11h9h11h9h11h9h11h9h11h9h-0-x---5h7-7-7-7-7|
A|----------------------------------------------x-7------------|
E|-------------------------------------------------------------|

E|---------------------------------------------------------|
B|---------------------------------------------------------|
G|-5h0--------5h0---10h0-9-7h0----12----11-9h11h9h11h9h11/-|
D|-----7-7-7------8----8-------10----10--------------------|
A|---------------------------------------------------------|
E|---------------------------------------------------------|

E|-----------------------------------|
B|-----------------------------------|
G|-7h-9h7h9h7/5h-7h5h7h5/4h6h4h6h4h6-|
D|-----------------------------------|
A|-----------------------------------|
E|-----------------------------------|

  (C#m)
E|---------------------------------------------------------|
B|---------------------------------------------------------|
G|-18h6h9-13h6h9-13h6h9-13h6h9-13h6h9-13h6h9-13h6h9-13h6h9-|
D|---------------------------------------------------------|
A|---------------------------------------------------------|
E|---------------------------------------------------------|

  (A)
E|-----------------------------------------------------------|
B|-----------------------------------------------------------|
G|-14h6h9-14h6h9-14h6h9-14h6h9-14h6h9-14h6h9-14h6h9-14h6h9h8-|
D|-----------------------------------------------------------|
A|-----------------------------------------------------------|
E|-----------------------------------------------------------|

  (A dim)
E|-----------------------------------------------------------------|
B|-----------------------------------------------------------------|
G|-14h8h11-14h8h11-14h8h11-14h8h11-14h8h11-14h8h11-16h8h11-16h8h11-|
D|-----------------------------------------------------------------|
A|-----------------------------------------------------------------|
E|-----------------------------------------------------------------|

  (E)
E|-----------------------------------------------------------------|
B|-----------------------------------------------------------------|
G|-16h9h13-16h9h13-16h9h13-16h9h13-16h9h13-16h9h13-16h9h13-16h9h13-|
D|-----------------------------------------------------------------|
A|-----------------------------------------------------------------|
E|-----------------------------------------------------------------|

  (C)                                             (Csus2)
E|--------------------------------------------------------------------|
B|--------------------------------------------------------------------|
G|-17h9h12-17h9h12-17h9h12-17h9h12-17h9h12-17h9h12-19h9h12-19h9h12h11-|
D|--------------------------------------------------------------------|
A|--------------------------------------------------------------------|
E|--------------------------------------------------------------------|

  (D)
E|----------------------------------------------|
B|----------------------------------------------|
G|-19h11h14-19h11h14-19h11h14-19h11h14-19h11h14-|
D|----------------------------------------------|
A|----------------------------------------------|
E|----------------------------------------------|

           (Dsus2)
E|----------------------------|
B|----------------------------|
G|-19h11h14-21h11h14-21h11h14-|
D|----------------------------|
A|----------------------------|
E|----------------------------|

  (E)
E|-------------------------------------------------------|
B|-------------------------------------------------------|
G|-21h16h13-21h16h13-21h16h13-21h16h13-21h16h13-21h16h13-|
D|-------------------------------------------------------|
A|-------------------------------------------------------|
E|-------------------------------------------------------|

E|-----------------------|
B|-----------------------|
G|-21h16h13-21h16h13-21h-|
D|-----------------------|
A|-----------------------|
E|-----------------------|

                    (E7)            (E°)
E|--------------------------------------------------|
B|--------------------------------------------------|
G|-13h16-21t13h16-21h16--21h16h19-21t15h18-21t15h18-|
D|--------------------------------------------------|
A|--------------------------------------------------|
E|--------------------------------------------------|

     (Am)
E|-----------------------|
B|-----------------------|
G|-21h14h17-21t14h17-21t-|
D|-----------------------|
A|-----------------------|
E|-----------------------|

  (E)               (E7)                 (E°)
E|-------------------------------------------------------|
B|-------------------------------------------------------|
G|-13h16-21h13h16/19-21h16h19-21h16h19-21h15h18-21h15h18-|
D|-------------------------------------------------------|
A|-------------------------------------------------------|
E|-------------------------------------------------------|

     (Am)
E|-----------------------|
B|-----------------------|
G|-21h14h17-21h14h17-21h-|
D|-----------------------|
A|-----------------------|
E|-----------------------|

                    (D7)              (D°)
E|----------------------------------------------------|
B|----------------------------------------------------|
G|-13h16-21h13h16-19h14h17-19h14h17-19h13h16-19h13h16-|
D|----------------------------------------------------|
A|----------------------------------------------------|
E|----------------------------------------------------|

     (Gm)
E|-----------------------|
B|-----------------------|
G|-19h12h15-19h12h15-19h-|
D|-----------------------|
A|-----------------------|
E|-----------------------|

  (D)                  (C7)              (C°)
E|-------------------------------------------------------|
B|-------------------------------------------------------|
G|-11h14-19h11h14/17-18h12h15-17h12h15-17h11h14-17h11h14-|
D|-------------------------------------------------------|
A|-------------------------------------------------------|
E|-------------------------------------------------------|

      (Fm)
E|-----------------------|
B|-----------------------|
G|-17h10h13-17h10h13-17h-|
D|-----------------------|
A|-----------------------|
E|-----------------------|

  (C)             (B)
E|------------------------------------------------------|
B|------------------------------------------------------|
G|-9h12-17h9h12-16h8h11-16h8h11-16h8h11-16h8h11-16h8h11-|
D|------------------------------------------------------|
A|------------------------------------------------------|
E|------------------------------------------------------|

E|---------------------------|
B|---------------------------|
G|-16h8h11-16h8h11-16h8h11-1-|
D|---------------------------|
A|---------------------------|
E|---------------------------|

  (Em)
E|------------------------------------------------------------------|
B|------------------------------------------------------------------|
G|-9h12-16h9h12-16h9h12-16h9h12-16h9h12-16h9h12-16h9h12-16h9h12-16h-|
D|------------------------------------------------------------------|
A|------------------------------------------------------------------|
E|------------------------------------------------------------------|

  (B)
E|------------------------------------------------------------------|
B|------------------------------------------------------------------|
G|-8h11-16h8h11-16h8h11-16h8h11-16h8h11-16h8h11-16h8h11-16h8h11-16h-|
D|------------------------------------------------------------------|
A|------------------------------------------------------------------|
E|------------------------------------------------------------------|

  (Em)    (B)     (Em)    (B)     (Em)    (B)     (Em)    (B)
E|------------------------------------------------------------------|
B|------------------------------------------------------------------|
G|-9h12-16h8h11-16h9h12-16h8h11-16h9h12-16h8h11-16h9h12-16h8h11-16h-|
D|------------------------------------------------------------------|
A|------------------------------------------------------------------|
E|------------------------------------------------------------------|

  (Em)    (B)     (Em)    (B)     (Em)    (B)     (Em)    (B)
E|------------------------------------------------------------------|
B|------------------------------------------------------------------|
G|-9h12-16h8h11-16h9h12-16h8h11-16h9h12-16h8h11-16h9h12-16h8h11-16h-|
D|------------------------------------------------------------------|
A|------------------------------------------------------------------|
E|------------------------------------------------------------------|

E|------------------------------|---------------------|-----|
B|------------------------------|---------------------|--12-|
G|-9/---------------------------|---------------------|-----|
D|------------------------------|---------------------|-----|
A|------------------------------|---------------------|-----|
E|------4/18b---19h0------12-12-|--------------12--7--|--12-|

 

 

 
 
 
     
 
 
 

инженеров.netДомашняя страницаНезависимый морской сайтПортал для гитаристовПриколы, юмор, анекдоты

 
обновлен 24.12.2011
в сети с 06.03.2004
 
 
Неофициальный морской сайт Домашняя страница Яндекс цитирования Internet Map Rambler's Top100
Учет посещений на народе

все тексты песен являются собственностью их автора. песени взяты из открытых источников. на сайте размещены с целью ознакомления. при использовании материалов сайта ссылка на сайт обязательна.

по всем вопросам стучитесь в асю или пишите на электропочту

идея, дизайн, редактирование Леха ZaG Загрядский

zagstudio