Аккорды для всех - сайт народных аккордов
 
Аккорды и тексты песен
Guitar Pro табулатуры
Уроки игры на гитаре
Таблица аккордов
Бесплатные программы для музыкантов
Фотографии музыкантов
Видеоклипы
Каталог ссылок
Обратная связь
На главную страницу
 
 
     
 
 

Аккорды, песни, текст, табулатура



Мумий Тролль - Знакомым столичным (2 вариант)


Вся песня, вроде, играется в 3 аккорда. Поправьте, если не прав.
       |----------|
       |-F--C--Dm-|
       |----------|

intro: Riff1

Что ж если уж и твой муж
Прячется в душ,
Когда ты балуешь.
На виду не у тех а с кем ты дружишь...

Да вот и я и не друг -
Почти знакомый,
Но еще не такой до боли.
И никак не завернуть уже до дома.

Так
одинок
уголек
Тепл но юрок,
Не хотел, да обижу

Сегодня ближе до Парижа  x2
Сегодня виды на Мадрид

Сегодня ближе до Парижа
А мы в Москву гонять тоску

Сегодня ближе
А мы в Москву прогнать тоску

Сегодня ближе...

riff1:
e|-------------------------------------|
B|---6--8--10----13--10/8-8------------|
G|-5---------------------------10-9-7--|

E|---------------------------------13-10-|
B|--6--8--10----13--10/8-8---13-10-------|
G|---------------------------------------|

riff1(continue):

e|------------------------------|
B|--10-8-6------8--5---------6--|
G|---------7-----------5--------|
D|------------------------7-----|

E|-------------------------------------------------------|
B|---6--8--10--13-10--13-10--8---6-5-----3---------------|
G|-5---------------------------------5/2--------2--0-----|
D|-----------------------------------------------------3-|

 

 

 
 
 
     
 
 
 

инженеров.netДомашняя страницаНезависимый морской сайтПортал для гитаристовПриколы, юмор, анекдоты

 
обновлен 24.12.2011
в сети с 06.03.2004
 
 
Неофициальный морской сайт Домашняя страница Яндекс цитирования Internet Map Rambler's Top100
Учет посещений на народе

все тексты песен являются собственностью их автора. песени взяты из открытых источников. на сайте размещены с целью ознакомления. при использовании материалов сайта ссылка на сайт обязательна.

по всем вопросам стучитесь в асю или пишите на электропочту

идея, дизайн, редактирование Леха ZaG Загрядский

zagstudio