Аккорды для всех - сайт народных аккордов
 
Аккорды и тексты песен
Guitar Pro табулатуры
Уроки игры на гитаре
Таблица аккордов
Бесплатные программы для музыкантов
Фотографии музыкантов
Видеоклипы
Каталог ссылок
Обратная связь
На главную страницу
 
 
     
 
 

Аккорды, песни, текст, табулатура



Sting - La Belle Dame Sans Regret


%
(3)--------3---2-|-----------2---2-|-----------2---0-|-----------0---0-|
---1---1---------|---1---1---------|---0---0---------|---0---0---------|
---2---2---------|---2---2---------|---0---0---------|---0---0---------|
-----------------|-----------------|-----------------|-----------------|
-0-------0-------|-2-------2-------|-----------------|-----------------|
-----------------|-----------------|-0-------0-------|-0-------0-------|
 1 2 3 4 5 6 7 8   1 2 3 4 5 6 7 8   etc.
-----------0---3-|-----------2---5-|-----------4---7-|-----------7---3-|
---1---1---------|---1---1---------|---0---0---------|---0---0---------|
---2---2---------|---2---2---------|-----------------|-----------------|
-----------------|-----------------|---6---6---------|---6---6---------|
-3-------3-------|-2-------2-------|-----------------|-5-------5-------|
-----------------|-----------------|-0-------0-------|-----------------|

-----------3---2-|-----------2---2-|---5---3---2---0-|-----------0---0-|
---2---2---------|---1---1-------0-|-----------------|---0---0---------|
---3---3---------|---2---2-------0-|--(0)-(0)-(0)----|---0---0---------|
-----------------|-----------------|-----------------|-----------------|
-4-------4-------|-3-------3-------|-----------------|-----------------|
-----------------|-----------------|-0-------0-------|-0-------0-------|
 ________________
/Intro
-----------0---0-|---------------0-|-----------0-----|---------------3-|
---0---0---------|---0---0---4-----|---0---0-------0-|---0---0---0-----|
---0---0---------|---0---0---------|---0---0-------0-|---0---0---------|repeat
-----------------|-----------------|-----------------|-----------------|from %
-0-------0-------|-2-------2-------|-----------------|-----------------|
-----------------|-----------------|-0-------0-------|-0-------0-------|
 ________________
/1. repeat verse
-----------0---0-|-----------0-----|---------------0-|-----------0---3-|
---0---0---------|---1---1-------4-|-----------4-----|---0---0---------|
---0---0---------|---0---0---------|---3---3---------|-----------------|repeat
-----------------|-1-------1-------|---5---5---------|---4---4---------|from %
-4-------4-------|-----------------|-----------------|-5-------5-------|
-----------------|-----------------|-4-------4-------|-----------------|
 ________________
/2. repeat verse
-----------0---0-|---------------0-|-----------------|-----------0---0-|
---0---0---------|---0---0---4-----|---0---0---0---0-|---0---0---------|
---0---0---------|---0---0---------|---0---0---0---0-|---0---0---------|
-----------------|-----------------|-----------------|-----------------|
-0-------0-------|-2-------2-------|-----------------|-4-------4-------|
-----------------|-----------------|-0-------0-------|-----------------|
                                                     $
-----------0---0-|---------------0-|-----------------|-----------------|
---0---0---------|---0---0---4-----|---0---0---0---0-|---0---0---0---0-|
---0---0---------|---0---0---------|---0---0---0---0-|---0---0---0---0-|
-----------------|-----------------|-----------------|-----------------|
-3-------3-------|-2-------2-------|-----------------|-----------------|
-----------------|-----------------|-0-------0-------|-0-------0-------|
The part with the piano accompaniment without vocals is played like the
whole verse, just without the high voice, and the middle voice 4x every
bar. (Note that now you can play some notes on the 0th or 1st fret instead
of the 4th-5th.)
-----------------|-----------------|-----------------|-----------------|
---1---1---1---1-|---1---1---1---1-|---0---0---0---0-|---0---0---0---0-|
---2---2---2---2-|---2---2---2---2-|---0---0---0---0-|---0---0---0---0-| etc.
-----------------|-----------------|-----------------|-----------------|
-0-------0-------|-2-------2-------|-----------------|-----------------|
-----------------|-----------------|-0-------0-------|-0-------0-------|


After that: 2nd verse, ?til $, then:
-----------------|-------------------------------|
---0---0---0---0-|-------------------------------|
---0---0---0---0-|-------------------------------|
-----------------|-------------------------------|
-4-------4-------|-3---------------------2-------|
-----------------|-------------------------------|
         "la belle ...    la belle dame sans ...
                                                   __________________
                                                   I
-----------------|-----------------|-----------------|-----------------|
-----------------|-----------------|---------------3-|---3-3-----1-----|
-0---0-----0---0-|---0---0---0-----|-0---0-----0---2-|---2-2-----2-----|
-0---0-----0-----|-----------------|-2---2-----2---1-|---1-1-----1-----|
---------------4-|---4---4---4-----|-3---3-----3-----|-2-------2-------|
-0-------0-------|-0-------0-------|-5-------5-------|-----------------|
    ...                      re-grets ..."
Repeat to fade: (with variations)
-----------------|-----------------|-----------------|-----------------|
---0---0---0---2-|---0---0---0---0-|---0---0---0---0-|---3-3-----3---3-|
---0-0-0---0---0-|---0---0---0---0-|---0-0-0---0---0-|---2-2-----2---2-|
-----------------|-----------------|-----------------|---1-1-----1---1-|
-----------------|-----------------|-0-------0-------|-2-------2-------|
-0-------0-------|-0-------0-------|-----------------|-----------------|

Lyrics: (Here are some English Translations)
1.
Dansons tu dis
Et moi, je suis
Mes pas sont gauches
Mes pieds tu fauches
Je crain le sots
Je cherche les sots
Pour m?expliquer ta vie, alors
Tu ments, ma soeur
Tu brises mon coeur
Je pense, tu sais
Erreurs, jamais
J?ecoute, tu parles
Je ne comprends pas bien
La Belle Dame sans Regrets
2.
Je pleure, tu ris
Je chante, tu cries
Tu semes les grains
D?un mauvais chene
Mon ble s?envole
Tu en a ras le bol
J?attends, toujour
Mes cris sont sourds
Tu ments, ma soeur
Tu brises mon coeur
Je pense, tu sais
Erreurs, jamais
J?ecoute, tu parles
Je ne comprends pas bien
La Belle Dame sans Regrets


La Belle Dame Sans Regrets - transcribed by Harold
Noriega
Belle Dame Sans Regrets is in the Key of G with the Capo on 3.
It is a very simple song with only 3 sections that repeat. Since
I am not very skilled in the French language, I will provide you
with the sections and you can apply the lyrics accordingly:


Introduction:
Am7     B7      Em      Em7
Am7     B7      E       E7
A9/C#   B7?     Em      Em7
Cmaj7   B7      Em


Lyrics:  *
Am7     B7      Em      Em7
Am7     B7      E       E7
A9/C#   B7?     Em      Em7
Dim4    Am?     Am4     Gm?
Am7     B7      E       E7
A9/C#   B7?     Em      Em7
Cmaj7   B7      Em
Cmaj7   B7      Em
*  Repeat with instrumental section and also with
   second lyric section

Ending:

Cmaj7        B7                    Em    Em7
La Belle Dam sans. . . . . .Regrets
Cmaj7        B7             Em      Em7. . . . . .Repeat to fade. . .


Chords:
Am7             002010
B7              021202
Em              022000
Em7             020000
E               022100
E7              020100
A9/C#           042000
B7?             031200
Cmaj7           032000
Dim4            045450
Am?             555550
Am4             405540
Gm?             333453

 

 

 
 
 
     
 
 
 

инженеров.netДомашняя страницаНезависимый морской сайтПортал для гитаристовПриколы, юмор, анекдоты

 
обновлен 24.12.2011
в сети с 06.03.2004
 
 
Неофициальный морской сайт Домашняя страница Яндекс цитирования Internet Map Rambler's Top100
Учет посещений на народе

все тексты песен являются собственностью их автора. песени взяты из открытых источников. на сайте размещены с целью ознакомления. при использовании материалов сайта ссылка на сайт обязательна.

по всем вопросам стучитесь в асю или пишите на электропочту

идея, дизайн, редактирование Леха ZaG Загрядский

zagstudio