-
 
Guitar Pro
 
 
     
 
 

, , ,



E.Siegmeister - Train Comming ( )

Energico

 

> > > > > >

-----|-8-8---8---------|-8-8---8---------|-8-8---8-----12--|-15------12------|

-8-10|-------------8-10|-------------8-10|-----------------|-17------13------|

-----|-9-9---9---------|-9-9---9---------|-9-9---9-----12--|-----------------|

-----|---5-7-5---5-7-5-|---5-7-5---5-7---|---5-7-5---5-7-5-|---5-7-8-7-5-----|

-----|-3-------3-------|-3-------3-----3-|-3-------3-------|-3-----------3---|

-----|-----------------|-----------------|-----------------|-----------------|

> > > > > > >

> >

|-----------------|-----------------|-11------8-------|-----------------|

|-13----13--------|-13--16--15--13--|-10------8-------|-----8---8---8---|

|-1414--14--------|-14--14--14--14--|-----------------|---------8---9---|

|-----------------|-----------------|---5-7-5---5-7-5-|---5-7-5---5-7-5-|

|---3-5-3---3-5-5-|---3-5-3---3-5-3-|-3-------3-------|-3-------3-------|

|-1-------1-------|-1-------1-------|-----------------|-----------------|

> > > > > > > >

 

> >

|-6-6---7---------|-7---------------|-9-------7-------|-12--12-------||

|-8-8---8---------|-8---10--8-------|-8-------7-------|---------13---||

|-----------------|---------8---9---|-----------------|---12---------||

|-----2-------2---|-----2-------2---|---5-7-----------|-10-----------||

|---5---5---5---5-|---5---5---5---5-|-3---------3--5--|---10-7-------||

|-3-------3-------|-3-------3-------|---------3-------|---------8----||

> > > > > > >

 

 

 

 

> h h

e -8-8- \ |-15------12------|

G ----- > Secondary hand |-17------13------| h = 1/2

B -9-9- / |-----------------| q = 1/4

A ----- \ |---5-7-8-7-5-----| e = 1/8

D ---5- > Primary hand |-3-----------3---| > = accent

E -3--- / |-----------------|

> e e e e e e q

 

 

 

...

 
 
 
     
 
 
| | | | | | | | | |
 

.net     , ,

 
24.12.2011
06.03.2004
 
 
    Internet Map Rambler's Top100

. . . .

, , ZaG

zagstudio