-
 
Guitar Pro
 
 
     
 
 

, , ,



Scorpions - Still Loving You

 

 

Gm Gm/F Gm/D#

E||------6-----------6--------|-----6--------9--8--6-----|

B||---------8-----------8-----|--------8--------------8--|

G||*-----------7-----------7--|-----------7--------------|

D||*--0-----------------------|--------------------------|

A||---------------8-----------|--6-----------------------|

E||---------------------------|--------------------------|

 

 

D7 Gm

-------6---------------|-------5----------------||-----6--------6--------6--|

----------8------------|----------7-------------||--------8--------8--------|

-------------7---------|-------------5---------*||-----------7--------7-----|

--8---------------8----|--7---------------7----*||--0-----------------------|

--6--------------------|--5---------------------||--------------------------|

-----------------------|------------------------||--------------------------|

 

 

-----6--------6--------6--|-----6--------6--------6--|

--------8--------8--------|--------8--------8--------|

-----------7--------7-----|-----------7--------7-----|

--0-----------------------|--0-----------------------|

--------------------------|--------------------------|

--------------------------|--------------------------|

 

 

A

-----6--------6--------6--|-----9---------9---------9--|

--------8--------8--------|--------10--------10--------|

-----------7--------7-----|--9---------9---------9-----|

--0-----------------------|----------------------------|

--------------------------|----------------------------|

--------------------------|----------------------------|

 

 

A/C# D

------9---------9---------9--|-----2--------2--------2--|

---------10--------10--------|--------3--------3--------|

-------------9---------9-----|-----------2--------2-----|

--11-------------------------|--0-----------------------|

-----------------------------|--------------------------|

-----------------------------|--------------------------|

 

 

Gm

-----2--------2--------2--|-----6--------6--------6--|

--------3--------3--------|--------8--------8--------|

-----------2--------2-----|-----------7--------7-----|

--0-----------------------|--0-----------------------|

--------------------------|--------------------------|

--------------------------|--------------------------|

 

 

-----6--------6--------6--|-----6--------6--------6--|

--------8--------8--------|--------8--------8--------|

-----------7--------7-----|-----------7--------7-----|

--0-----------------------|--0-----------------------|

--------------------------|--------------------------|

--------------------------|--------------------------|

 

 

A

-----6--------6--------6--|-----9---------9---------9--|

--------8--------8--------|--------10--------10--------|

-----------7--------7-----|--9---------9---------9-----|

--0-----------------------|----------------------------|

--------------------------|----------------------------|

--------------------------|----------------------------|

 

 

A/C# D Dsus D

------9---------9---------9--|-----2--------2--------3--|--2----------------|

---------10--------10--------|--------3--------3--------|-------------------|

-------------9---------9-----|-----------2--------2-----|-------------------|

--11-------------------------|--0-----------------------|-------------------|

-----------------------------|--------------------------|-------------------|

-----------------------------|--------------------------|-------------------|

 

 

Gm Gm/F Gm/D#

-----6-----------6--------|-----6--------9--8--6-----|-------6---------------|

--------8-----------8-----|--------8--------------8--|----------8------------|

-----------7-----------7--|-----------7--------------|-------------7---------|

--0-----------------------|--------------------------|--8---------------8----|

--------------8-----------|--6-----------------------|--6--------------------|

--------------------------|--------------------------|-----------------------|

 

 

D7 Gm Gm/F Gm/D#

-------5---------------|-----6-----------6--------|-----6--------9--8--6-----|

----------7------------|--------8-----------8-----|--------8--------------8--|

-------------5---------|-----------7-----------7--|-----------7--------------|

--7---------------7----|--0-----------------------|--------------------------|

--5--------------------|--------------8-----------|--6-----------------------|

-----------------------|--------------------------|--------------------------|

 

 

D7 Gm

-------6---------------|-------5---------------|-----6--------6--------6--|

----------8------------|----------7------------|--------8--------8--------|

-------------7---------|-------------5---------|-----------7--------7-----|

--8---------------8----|--7---------------7----|--0-----------------------|

--6--------------------|--5--------------------|--------------------------|

-----------------------|-----------------------|--------------------------|

 

 

-----6--------6--------6--|-----6--------6--------6--|

--------8--------8--------|--------8--------8--------|

-----------7--------7-----|-----------7--------7-----|

--0-----------------------|--0-----------------------|

--------------------------|--------------------------|

--------------------------|--------------------------|

 

 

A

-----6--------6--------6--|-----9---------9---------9--|

--------8--------8--------|--------10--------10--------|

-----------7--------7-----|--9---------9---------9-----|

--0-----------------------|----------------------------|

--------------------------|----------------------------|

--------------------------|----------------------------|

 

 

A/C# D

------9---------9---------9--|-----2--------2--------2--|

---------10--------10--------|--------3--------3--------|

-------------9---------9-----|-----------2--------2-----|

--11-------------------------|--0-----------------------|

-----------------------------|--------------------------|

-----------------------------|--------------------------|

 

 

Gm

-----2--------2--------2--|-----6--------6--------6--|

--------3--------3--------|--------8--------8--------|

-----------2--------2-----|-----------7--------7-----|

--0-----------------------|--0-----------------------|

--------------------------|--------------------------|

--------------------------|--------------------------|

 

 

-----6--------6--------6--|-----6--------6--------6--|

--------8--------8--------|--------8--------8--------|

-----------7--------7-----|-----------7--------7-----|

--0-----------------------|--0-----------------------|

--------------------------|--------------------------|

--------------------------|--------------------------|

 

 

A

-----6--------6--------6--|-----9---------9---------9--|

--------8--------8--------|--------10--------10--------|

-----------7--------7-----|--9---------9---------9-----|

--0-----------------------|----------------------------|

--------------------------|----------------------------|

--------------------------|----------------------------|

 

 

A/C# D Dsus D

------9---------9---------9--|-----2--------2--------3--|--2----------------|

---------10--------10--------|--------3--------3--------|-------------------|

-------------9---------9-----|-----------2--------2-----|-------------------|

--11-------------------------|--0-----------------------|-------------------|

-----------------------------|--------------------------|-------------------|

-----------------------------|--------------------------|-------------------|

 

 

 

 

...

 
 
 
     
 
 
| | | | | | | | | |
 

.net     , ,

 
24.12.2011
06.03.2004
 
 
    Internet Map Rambler's Top100

. . . .

, , ZaG

zagstudio