-
 
Guitar Pro
 
 
     
 
 

, , ,



Scorpions - STILL LOVING YOU

[INTRO]

Gm Gm/F Gm/Eb ? D7

|---6--------6--------6------9\8-6--------6------------5--------------------|

|-----8--------8--------8----------8---8----8-------7-----7-----------------|

|-------7--------7--------7------------7------7-----5-------5---------------|

|-0------------------------------------8--------8---7---------7-------------|

|----------8--------6------------------6------------5-----------------------|

|---------------------------------------------------------------------------|

Gm Gm/F Gm/Eb ? D7

|---6--------6--------6------9\8-6--------6------------5--------------------|

|-----8--------8--------8----------8---8----8-------7-----7-----------------|

|-------7--------7--------7------------7------7-----5-------5---------------|

|-0------------------------------------8--------8---7-----------------------|

|----------8--------6------------------6------------5-----------------------|

|---------------------------------------------------------------------------|

Gm

|---6-----6-----6--|---6-----6-----6-|---6-----6-----6-|---6-----6------6---|

|-----8-----8------|-----7-----7-----|-----7-----7-----|-----7-----7--------|

|-------7-----7----|-------8-----8---|-------8-----8---|-------8-----8------|

|-0----------------|-0---------------|-0---------------|-0------------------|

|------------------|-----------------|-----------------|--------------------|

|------------------|-----------------|-----------------|--------------------|

Time it needs time to win back your love again I will be

Love only love can bring back your love someday I will be

A D

|---9-----9-----9--|----9-----9----9-|---3-----3-----3-|---3-----3-----3----|

|-----8-----8------|------8-----8----|-----2-----2-----|-----2-----2--------|

|-9-----9-----9----|--------9-----9--|-------3-----3---|-------3-----3------|

|------------------|-11--------------|-0---------------|-0------------------|

|------------------|-----------------|-----------------|--------------------|

|------------------|-----------------|-----------------|--------------------|

there I will be there.

[Solo 1]

|---------------------------------------------------------------------------|

|---------------------------------------------------------------------------|

|------2h3-5-----3p2h3--3p2h3--2------2--3--5--3--5--^^^^^^^^-7-------------|

|-3/5------------------------------5------------------slowly----------------|

|---------------------------------------------------------------------------|

|---------------------------------------------------------------------------|

|----------------------------------------10-13-13^15------------------------|

|-------10h11-13---11p10h11-----10-11-13-------------13^15v13-11-13^^^^15---|

|-10/12----------------------12------------------------------------slowly---|

|---------------------------------------------------------------------------|

|---------------------------------------------------------------------------|

|---------------------------------------------------------------------------|

Gm C

|------------------|-----------------|-----------------|--------------------|

|------------------|-----------------|-----------------|--------------------|

|------------------|-------------3---|-----------------|-----------------5--|

|-5--5----------5--|-5-------3h5-----|-5--5----------5-|-5---------------5--|

|-5--5----------5--|-5---3h5---------|-5--5----------5-|-5---------------3--|

|-3--3----------3--|-3---------------|-3--3----------3-|-3------------------|

Fight Babe I'll fight to win back your love again I will be

Love only love can break down the walls someday I will be

A D

|------------------|-----------------|-----------------|--------------------|

|------------------|-----------------|-----------------|--------------------|

|------------------|-----------------|-7--7----------7-|-7-------------7----|

|-7--7-----------7-|-7-------------7-|-7--7----------7-|-7-------------7----|

|-7--7-----------7-|-7-------------7-|-5--5----------5-|-5-------------5----|

|-5--5-----------5-|-5-------------5-|-----------------|--------------------|

there I will be there

[REFRAIN]

Gm Eb Bb F

If we'd go again, all the way from start,

Gm Eb Bb F

I would try to change, the things that killed our love.

Gm Cm D G?

Your pride has built a wall, so strong that I can't get through.

Eb F

Is there really no chance to start once again.

Gm

I'm loving you.

Gm

Try, baby try to trust in my love again.

A D

I will be there, I will be there.

Gm

Love our love, Just shouldn't be thrown away

A D

I will be there, I will be there.

[REFRAIN]

Gm Eb Bb F

If we'd go again, all the way from start,

Gm Eb Bb F

I would try to change, the things that killed our love.

Gm F Gm Cm D C D

Yes, I've hurt your pride, and I know

Gm

What you've been through

Eb [lick A]

You should give me a chance

F

This can't be the end

Gm Eb Bb F [Lick B]

I'm still loving you

Gm Eb Bb F [Lick C]

I'm still loving you

Gm Eb Bb

I'm still loving you

F

I need your love

Gm Eb Bb

I'm still loving you

Still loving you baby...

[Lick A]

Eb

|---------------------------------------------------------------------------|

|---------------------------------------------------------------------------|

|---------------------------------------------------------------------------|

|---------------------------------------------------------------------------|

|--6--8--6--8--6--8---------------------------------------------------------|

|---------------------------------------------------------------------------|

[Lick B]

|---------------------------------------------------------------------------|

|-13^15--15v13-11--10--11---11-11--10~~~~~----------------------------------|

|---------------------------------------------------------------------------|

|---------------------------------------------------------------------------|

|---------------------------------------------------------------------------|

|---------------------------------------------------------------------------|

[Lick C]

|---------------------------------------------------------------------------|

|-------------------10--11--10~~~~-13-11-13-11--13^15v13-11-13^15-13^15-----|

|-10/12~~~~--10-12----------------------------------------------------------|

|---------------------------------------------------------------------------|

|---------------------------------------------------------------------------|

|---------------------------------------------------------------------------|

 

 

 

 

...

 
 
 
     
 
 
| | | | | | | | | |
 

.net     , ,

 
24.12.2011
06.03.2004
 
 
    Internet Map Rambler's Top100

. . . .

, , ZaG

zagstudio