-
 
Guitar Pro
 
 
     
 
 

, , ,



Scorpions - Holiday

Guitare accoustique 1

E||----1-----1-----1---1-----1-----0-|----1-----1---------0-----0-----0-|

B||------3-----3---------3-----3-----|------3-----3---3-----3-----3-----|

G||--------2-----2---------2-----2---|--------2-----2---------2-----2---|

D||--0-------------------------------|----------------------------------|

A||------------------3---------------|--1---------------0---------------|

E||----------------------------------|----------------------------------|

 

 

----5-----5-----5-|----1-----1-----1---1-----1-----0-|

------5-----5-----|------3-----3---------3-----3-----|

--------6-----6---|--------2-----2---------2-----2---|

--7---------------|--0-------------------------------|

------------------|------------------3---------------|

------------------|----------------------------------|

 

 

----1-----1---------0-----0-----0-|----5-----5-----5-|

------3-----3---3-----3-----3-----|------5-----5-----|

--------2-----2---------2-----2---|--------6-----6---|

----------------------------------|--7---------------|

--1---------------0---------------|------------------|

----------------------------------|------------------|

 

 

----1-----1-----1---1-----1-----0-|----1-----1---------0-----0-----0-|

------3-----3---------3-----3-----|------3-----3---3-----3-----3-----|

--------2-----2---------2-----2---|--------2-----2---------2-----2---|

--0-------------------------------|----------------------------------|

------------------3---------------|--1---------------0---------------|

----------------------------------|----------------------------------|

 

 

----5-----5-----5-|----1-----1-----1---1-----1-----0-|

------5-----5-----|------3-----3---------3-----3-----|

--------6-----6---|--------2-----2---------2-----2---|

--7---------------|--0-------------------------------|

------------------|------------------3---------------|

------------------|----------------------------------|

 

 

----1-----1---------0-----0-----0-|----5-----5-----5-|

------3-----3---3-----3-----3-----|------5-----5-----|

--------2-----2---------2-----2---|--------6-----6---|

----------------------------------|--7---------------|

--1---------------0---------------|------------------|

----------------------------------|------------------|

 

 

----1-----1---------1-----1-----0-|----0-----0-----------------------|

------3-----3---3-----3-----3-----|------1-----1---1---2-----2-------|

--------2-----2---------2-----2---|--------0-----0-------2-----2---2-|

--0---------------0---------------|------------------------2-----2---|

----------------------------------|--3---------------0---------------|

----------------------------------|----------------------------------|

 

 

----------0-1-------------0-1-----|----1-----1---------1-----1-----0-|

------3-------3-------3-------3---|------3-----3---3-----3-----3-----|

----2---2-------2---2---2-------2-|--------2-----2---------2-----2---|

--0---------------0---------------|--0---------------0---------------|

----------------------------------|----------------------------------|

----------------------------------|----------------------------------|

 

 

----0-----0-----------------------|----------1-------1-------1-------|

------1-----1---1---2-----2-------|------3-----3---3---3---3---3---3-|

--------0-----0-------2-----2---2-|----2---2-----2-------2-------2---|

------------------------2-----2---|--0-------------------------------|

--3---------------0---------------|----------------------------------|

----------------------------------|----------------------------------|

 

 

----------0---------1-----1-------|----------3---------------3-------|

------1-----1---1-----3-----3---3-|------3-----3---------3-----3-----|

----0---0-----0---------2-----2---|----4---4-----4-----4---------4---|

------------------0---------------|----------------5-------5-------5-|

--3-------------------------------|----------------------------------|

----------------------------------|--3---------------3---------------|

 

 

----------------------------------|----1-----1---------1-----1-----0-|

----2-----2---------2-----2-------|------3-----3---3-----3-----3-----|

------2-----2---2-----2-----2---2-|--------2-----2---------2-----2---|

--------2-----2---------2-----2---|--0---------------0---------------|

--0---------------0---------------|----------------------------------|

----------------------------------|----------------------------------|

 

 

----0-----0-----------------------|----1-----1-----1---1-----1-----0-|

------1-----1---1---2-----2-------|------3-----3---------3-----3-----|

--------0-----0-------2-----2---2-|--------2-----2---------2-----2---|

------------------------2-----2---|--0-------------------------------|

--3---------------0---------------|------------------3---------------|

----------------------------------|----------------------------------|

 

 

----1-----1---------0-----0-----0-|----5-----5-----5-|

------3-----3---3-----3-----3-----|------5-----5-----|

--------2-----2---------2-----2---|--------6-----6---|

----------------------------------|--7---------------|

--1---------------0---------------|------------------|

----------------------------------|------------------|

 

 

----1-----1-----1---1-----1-----0-|----1-----1---------0-----0-----0-|

------3-----3---------3-----3-----|------3-----3---3-----3-----3-----|

--------2-----2---------2-----2---|--------2-----2---------2-----2---|

--0-------------------------------|----------------------------------|

------------------3---------------|--1---------------0---------------|

----------------------------------|----------------------------------|

 

 

----5-----5-----5-|----1-----1---------1-----1-----0-|

------5-----5-----|------3-----3---3-----3-----3-----|

--------6-----6---|--------2-----2---------2-----2---|

--7---------------|--0---------------0---------------|

------------------|----------------------------------|

------------------|----------------------------------|

 

 

----0-----0-----------------------|----------0-1-------------0-1-----|

------1-----1---1---2-----2-------|------3-------3-------3-------3---|

--------0-----0-------2-----2---2-|----2---2-------2---2---2-------2-|

------------------------2-----2---|--0---------------0---------------|

--3---------------0---------------|----------------------------------|

----------------------------------|----------------------------------|

 

 

----1-----1---------1-----1-----0-|----0-----0-----------------------|

------3-----3---3-----3-----3-----|------1-----1---1---2-----2-------|

--------2-----2---------2-----2---|--------0-----0-------2-----2---2-|

--0---------------0---------------|------------------------2-----2---|

----------------------------------|--3---------------0---------------|

----------------------------------|----------------------------------|

 

 

----------1-------1-------1-------|----------0---------1-----1-------|

------3-----3---3---3---3---3---3-|------1-----1---1-----3-----3---3-|

----2---2-----2-------2-------2---|----0---0-----0---------2-----2---|

--0-------------------------------|------------------0---------------|

----------------------------------|--3-------------------------------|

----------------------------------|----------------------------------|

 

 

----------3---------------3-------|----------------------------------|

------3-----3---------3-----3-----|----2-----2---------2-----2-------|

----4---4-----4-----4---------4---|------2-----2---2-----2-----2---2-|

----------------5-------5-------5-|--------2-----2---------2-----2---|

----------------------------------|--0---------------0---------------|

--3---------------3---------------|----------------------------------|

 

 

----1-----1---------1-----1-----0-|----0-----0-----------------------|

------3-----3---3-----3-----3-----|------1-----1---1---2-----2-------|

--------2-----2---------2-----2---|--------0-----0-------2-----2---2-|

--0---------------0---------------|------------------------2-----2---|

----------------------------------|--3---------------0---------------|

----------------------------------|----------------------------------|

 

 

----1-----1-----1---1-----1-----0-|----1-----1---------0-----0-----0-|

------3-----3---------3-----3-----|------3-----3---3-----3-----3-----|

--------2-----2---------2-----2---|--------2-----2---------2-----2---|

--0-------------------------------|----------------------------------|

------------------3---------------|--1---------------0---------------|

----------------------------------|----------------------------------|

 

 

----5-----5-----5-|----1-----1-----1---1-----1-----0-|

------5-----5-----|------3-----3---------3-----3-----|

--------6-----6---|--------2-----2---------2-----2---|

--7---------------|--0-------------------------------|

------------------|------------------3---------------|

------------------|----------------------------------|

 

 

----1-----1---------0-----0-----0-|----5-----5-----5----------|----------|

------3-----3---3-----3-----3-----|------5-----5--------------|----------|

--------2-----2---------2-----2---|--------6-----6------------|----------|

----------------------------------|--7---------------7--------|----------|

--1---------------0---------------|---------------------------|----------|

----------------------------------|---------------------------|----------|

 

 

 

 

...

 
 
 
     
 
 
| | | | | | | | | |
 

.net     , ,

 
24.12.2011
06.03.2004
 
 
    Internet Map Rambler's Top100

. . . .

, , ZaG

zagstudio