Аккорды для всех - сайт народных аккордов
 
Аккорды и тексты песен
Guitar Pro табулатуры
Уроки игры на гитаре
Таблица аккордов
Бесплатные программы для музыкантов
Фотографии музыкантов
Видеоклипы
Каталог ссылок
Обратная связь
На главную страницу
 
 
     
 
 

Аккорды, песни, текст, табулатура



Сансара - Всего так много


Intro:   {			repeat
E|-----9---12-9--------12-9------12-9--------9-14----------|
B|--10--10-----10--10-----10-10-----10--10-----15-12---12--|
G|-9----------------9-----------9-----------9--------------|

E|---14------------14-----------14-|
B|-15-12---12--15-12--15-----------|
G|--11------------11------------11-|

 A
Нам всего так много,
Знак на твоем лого -
 Hm
Сердце, в котором нет места.
Кто он, кто он...?
 A
Нам всего так много,
Знак на моем лого -
 Hm
Сердце, в котором нет места.
Кто он, кто он...?
Нам всего так много,
Знак на нашем лого -
Сердце, в котором нет места.
Кто он, кто он...?
Нам горят огни реклам,
Ты выпьешь их до дна,
Я вспомню слоган -
Нам всего так много.

Outro: A5 H5

Нечто, вроде:
B|-10-9-10-12-10-9-10-10----------|
G|-----------------------------11-|

Барича мало, Кустурицы мало, Акунина мало,
Тебя так мало мне.
Довлатова мало, Борхеса мало, Пелевина мало,
Тебя так мало мне... У-у!

В куплете есть такое:

 Три раза
E|-----------9--------------------9-|
B|-10-9^10-12------------9^10-12----|
G|---------------6-4-6-4-2----------|

На четвертый
E|-----------9--14-|
B|-10-9^10-12------|

 

 

 
 
 
     
 
 
 

инженеров.netДомашняя страницаНезависимый морской сайтПортал для гитаристовПриколы, юмор, анекдоты

 
обновлен 24.12.2011
в сети с 06.03.2004
 
 
Неофициальный морской сайт Домашняя страница Яндекс цитирования Internet Map Rambler's Top100
Учет посещений на народе

все тексты песен являются собственностью их автора. песени взяты из открытых источников. на сайте размещены с целью ознакомления. при использовании материалов сайта ссылка на сайт обязательна.

по всем вопросам стучитесь в асю или пишите на электропочту

идея, дизайн, редактирование Леха ZaG Загрядский

zagstudio