Аккорды для всех - сайт народных аккордов
 
Аккорды и тексты песен
Guitar Pro табулатуры
Уроки игры на гитаре
Таблица аккордов
Бесплатные программы для музыкантов
Фотографии музыкантов
Видеоклипы
Каталог ссылок
Обратная связь
На главную страницу
 
 
     
 
 

Аккорды, песни, текст, табулатура



Ritchie Blackmore - Play Minstrel Play


Песня играется в Cm, посему ставим каподастр на 3 лад

вступление (2 раза):

E|------0-5-7-8-7-5-0----1-3-5-0------1-0-----------0---------|
B|----------------------3------------3----3-1-0-1-3---3-1-0---|
G|---2-----------------2------------2-----------------------2-|
D|--2-----------------0------------0--------------------------|
A|-0---------------------------0----------------------------0-|
E|--------------------------------------------0-----0---------|

куплет:

E|-----------------------0----------------------------------|
B|---0-1-3-1-0-----0-1-3---3-0-1-0------0-1-0---1-0---------|
G|-2-----------2-2-----------------2--2-------2-----2-2-0-0-|
D|--------------------------------------------------2-2-0-0-|
A|-0-----------0---------------0------0-------0-----0-----2-|
E|----------------------------------------------------------|

E|-----------------------0----------------------------------|
B|---0-1-3-1-0-----0-1-3---3-0-1-0------0-1-0---1-0---------|
G|-2-----------2-2-----------------2--2-------2-----2-2-0-0-|
D|--------------------------------------------------2-2-0-0-|
A|-0-----------0---------------0------0-------0-----0-----2-|
E|----------------------------------------------------------|

припев:

E|-----0-0---0-1-0---0------3-1-0------------------0-0---|
B|----1----3---------------0------3----1-0--------1----3-|
G|---0--------------------0-----------2----2-----0-------|
D|--2--------------------0-----------2----------2--------|
A|-3--------------------2-----------0----------3---------|
E|---------------------3---------------------------------|

E|-0-1-0----------------|
B|-------3-1----0-1-0---|
G|-------------0------2-|
D|------------0-------2-|
A|--------------------0-|
E|----------------------|

E|-----0-0---0-1-0---0------3-1-0--------------0-------0-0-|
B|----1----3---------------0------3-1-0----1-3--------1----|
G|---0--------------------0---------------2----------0-----|
D|--2--------------------0---------------2----------2------|
A|-3--------------------2---------------0----------3-------|
E|---------------------3-----------------------------------|

E|---0-1-0-----------------|
B|-3-------3-1-----0-1-0---|
G|----------------0------2-|
D|---------------0-------2-|
A|--------------2--------0-|
E|-------------3-----------|

текст:

Am
Underneath the harvest moon
Where the ancient shadows will play and hide...
With a ghostly tune and the devil?s pride...
"Stranger" whispered all the town
Has he come to save us from Satan?s hand?
Leading them away to a foreign land...

  C
Play for me, minstrel, play
     G             Am
And take away our sorrows...
  C
Play for me, minstrel, play
           G  Am
And we?ll follow...
 C
Hear, listen, can you hear,
     G                  Am
The haunting melody surrounding you,
 C                G                Am
Weaving a magic spell all around you...

Danger hidden in his eyes,
We should have seen it from far away,
Wearing such a thin disguise in the light of day...
He held the answer to our prayers,
Yet it was too good to be...
Proof before our eyes, yet we could not see...

 

 

 
 
 
     
 
 
 

инженеров.netДомашняя страницаНезависимый морской сайтПортал для гитаристовПриколы, юмор, анекдоты

 
обновлен 24.12.2011
в сети с 06.03.2004
 
 
Неофициальный морской сайт Домашняя страница Яндекс цитирования Internet Map Rambler's Top100
Учет посещений на народе

все тексты песен являются собственностью их автора. песени взяты из открытых источников. на сайте размещены с целью ознакомления. при использовании материалов сайта ссылка на сайт обязательна.

по всем вопросам стучитесь в асю или пишите на электропочту

идея, дизайн, редактирование Леха ZaG Загрядский

zagstudio