Аккорды для всех - сайт народных аккордов
 
Аккорды и тексты песен
Guitar Pro табулатуры
Уроки игры на гитаре
Таблица аккордов
Бесплатные программы для музыкантов
Фотографии музыкантов
Видеоклипы
Каталог ссылок
Обратная связь
На главную страницу
     
 
 

Аккорды, песни, текст, табулатура



 RHCP – Other side

 

 

  Am

 

e:--------------------------------|-----------------------------------|

B:--------------------------------|-----------------------------------|

G:--------------------------------|-----------------------------------|

D:-----------7--7--9-7------------|-------------------7--7--9-7-------|

A:--7--7--7------------10--7--(7)-|-5--5--5--7--7--7------------10--7-|

E:--------------------------------|-----------------------------------|

                                               How long, how long, will

 

 

 

 

e:--------------------------------------------------|

B:--------------------------------------------------|

G:--------------------------------------------------|

D:-------------------------------7--7--7--9-7-------|

A:--7--7-7--5--5--5--7--7--7-7----------------10--7-|

E:--------------------------------------------------|

   I slide...

 

 

 

 

e:--------------------------------------|----------------|

B:--------------------------------------|----------------|

G:------------------------------------9-|-9--9-----------|

D:---------------------------7--7--7----|-------9--9--9--|

A:-7--7-7--5--5--5--7--7--7-------------|----------------|

E:--------------------------------------|----------------|

           I don't believe it's bad...

 

 

 

 

e:-------------0--15---------(15)---|-------------15|

B:-13---------12--------------------|---13------12--|

G:----------------------------------|---------------|

D:----------------------------------|---------------|

A:----------0-----------------------|---------------|

E:----------------------------------|---------------|

       ...I heard your voice through a photograph...

 

 

if you hit the open a _very_ softly, it makes a nice tone

 

 

 

Lyrics:

 

Chorus:

How long how long will I slide

Separate my side I don't

I don't believe it's bad

Slit my throat

It's all I ever

 

I heard your voice through a photograph

I thought it up it brought up the past

Once you know you can never go back

I've got to take it on the otherside

 

Centuries are what it meant to me

A cemetery where I marry the sea

Stranger things could never change my mind

I've got to take it on the otherside

Take it on the otherside

Take it on

Take it on

 

Chorus

 

Pour my life into a paper cup

The ashtray's full and I'm spillin' my guts

She wants to know am I still a slut

I've got to take it on the otherside

 

Scarlet starlet and she's in my bed

A candidate for my soul mate bled

Push the trigger and pull the thread

I've got to take it on the otherside

Take it on the otherside

Take it on

Take it on

 

Chorus

 

Turn me on take me for a hard ride

Burn me out leave me on the otherside

I yell and tell it that

It's not my friend

I tear it down I tear it down

And then it's born again

 

Chorus

 

How long I don't believe it's bad

Slit my throat

It's all I ever

 

 

 

 

 
 
 
     
 
 
 

инженеров.netДомашняя страницаНезависимый морской сайтПортал для гитаристовПриколы, юмор, анекдоты

 
обновлен 24.12.2011
в сети с 06.03.2004
 
 
Неофициальный морской сайт Домашняя страница Яндекс цитирования Internet Map Rambler's Top100
Учет посещений на народе

все тексты песен являются собственностью их автора. песени взяты из открытых источников. на сайте размещены с целью ознакомления. при использовании материалов сайта ссылка на сайт обязательна.

по всем вопросам стучитесь в асю или пишите на электропочту

идея, дизайн, редактирование Леха ZaG Загрядский

zagstudio