Аккорды для всех - сайт народных аккордов
 
Аккорды и тексты песен
Guitar Pro табулатуры
Уроки игры на гитаре
Таблица аккордов
Бесплатные программы для музыкантов
Фотографии музыкантов
Видеоклипы
Каталог ссылок
Обратная связь
На главную страницу
 
 
     
 
 

Аккорды, песни, текст, табулатура



Red Hot Chili Peppers - Felas Cock


Fig.1
                                End
E|----------------------------|--------------------------------|
B|----------------------------|--------------------------------|
G|*--------------------------*|--------------------------------|
D|*--------------------------*|--------------------------------|
A|--10--10-10-10-10-10-10-10--|-10--10--10--10--10--10--10--10-|
E|----------------------------|--------------------------------|

Instead of playing the G on the 10th fret on the A-string, you
could play the G on 5th fret on the D-string if you think that
sounds better.

Fig. 2

E|-17-15----------------------------------|
B|-17-15-x-x-15-x-x-17-x-x-15-x-x-17------|
G|-15-15-x-x-15-x-x-17-x-x-15-x-x-17------|
D|-----------15-x-x-17-x-x-15-x-x-17-x----|
A|-----------------------------------x----|
E|-------------------------------------15-|

E|--17-15--------------------------18-18-|
B|--17-15-x-x-15-x-x-17-x-x-15-x-x-18-18-|
G|--15-15-x-x-15-x-x-17-x-x-15-x-x-------|
D|--------x-x-15-x-x-17-x-x-15-x-x-------|
A|---------------------------------------|
E|---------------------------------------|

E|--17-15-------------------------------------|
B|--17-15-x-x-15-x-x-17-x-x-15-x-x--17--------|
G|--15-15-x-x-15-x-x-17-x-x-15-x-x--17--------|
D|------------15-x-x-17-x-x-15-x-x--17--x-----|
A|--------------------------------------x-----|
E|----------------------------------------15--|

E|--17-15-------------------------------------|
B|--17-15-x-x-15-x-x-17-x-x-15--x-x-x-x-x-x---|
G|--15-15-x-x-15-x-x-17-x-x-15--x-x-x-x-x-x---| x2
D|--------x-x-15-x-x-17-x-x-15--x-x-x-x-x-x---|
A|--------------------------------------------|
E|--------------------------------------------|

I don?t know if you should play the the notes on the A and
D-string in this part, but I think it sounds good both ways.

Fig. 3                                   End

      G9         F9        C9                    G9
E|----10----|----8----|----3----|----15----|----10-|
B|----10----|----8----|----3----|----15----|----10-|
G|----10----|----8----|----3----|----15----|----10-|
D|-----9----|----7----|----2----|----------|-----9-|
A|----10----|----8----|----3----|----------|----10-|
E|----------|---------|---------|----------|-------|

Sometimes it ends with the G9 chord and sometimes not...but
anyway go back to Fig.1 and palm-mute after this bit wich
I called Fig.3

Last thing is:

E|---------------------------------|
B|---------8-------8----11--8------|
G|----10b-----10b--------------10b-|
D|---------------------------------|
A|---------------------------------|
E|---------------------------------|

This could be the Bass part for Fig. 1 & 2

G|-----------------------------|---------------------------|
D|--5----3-3-3-3---------------|--5----3-3-3-3-------------|
A|----------------5-5-5-3------|----------------5-5-5-3----|
E|-----------------------5-3---|-----------------------5-3-|

...or like this.

G|-------------------------------|-----------------------------|
D|--5----3-3-3-3-----------------|--5----3-3-3-3---------------|
A|----------------5-5-5-3-(0)----|----------------5-5-5-3-(0)--|
E|---------------------------3---|---------------------------3-|

This for Fig. 3

      G         F         C
G|---------|---------|---------|----5-|
D|----5----|----3----|---------|------|
A|---------|---------|----3----|------|
E|---------|---------|---------|------|

 

 

 
 
 
     
 
 
 

инженеров.netДомашняя страницаНезависимый морской сайтПортал для гитаристовПриколы, юмор, анекдоты

 
обновлен 24.12.2011
в сети с 06.03.2004
 
 
Неофициальный морской сайт Домашняя страница Яндекс цитирования Internet Map Rambler's Top100
Учет посещений на народе

все тексты песен являются собственностью их автора. песени взяты из открытых источников. на сайте размещены с целью ознакомления. при использовании материалов сайта ссылка на сайт обязательна.

по всем вопросам стучитесь в асю или пишите на электропочту

идея, дизайн, редактирование Леха ZaG Загрядский

zagstudio