Аккорды для всех - сайт народных аккордов
 
Аккорды и тексты песен
Guitar Pro табулатуры
Уроки игры на гитаре
Таблица аккордов
Бесплатные программы для музыкантов
Фотографии музыкантов
Видеоклипы
Каталог ссылок
Обратная связь
На главную страницу
 
 
     
 
 

Аккорды, песни, текст, табулатура



Red Hot Chili Peppers - Aeroplane 


Intro:

E|-3~~------3~~------5~~----6-------------------------|
B|-6~~------3~~------3~~-------------3------------5~~-|
G|-3~~------3~~------3~~-----------------3--------5~~-|
D|-3~~------5~~------3~~--------------------------5~~-|
A|-3~~------3~~------3~~--------------------------3~~-|
E|----------------------------------------------------|

E|-6~~----5--------------3----3~~-----------------------|
B|-3~~-----------6------------3~~----------3~~------5~~-|
G|-3~~---------------3--------5~~------5---3~~------5~~-|
D|-3~~------------------------5~~----------3~~------5~~-|
A|-3~~------------------------3~~----------3~~------3~~-|
E|------------------------------------------------------|

Chorus:

E|-6-6-6-6-6-6-6-6-6-6-6-6-6-6-6-6-6-6-6-6-6-6-6-6-6-6-6-6-6-6-|
B|-6-6-6-6-6-6-6-6-6-6-6-6-6-6-5-5-5-5-5-5-5-5-5-5-5-5-5-5-5-5-|
G|-5-5-5-5-5-5-5-5-5-5-5-5-5-5-5-5-5-5-5-5-5-5-5-5-5-5-5-5-5-5-|
D|-------------------------------------------------------------|
A|-------------------------------------------------------------|
E|-------------------------------------------------------------|
							 Repeat X6

Verse:
E|--18---x--18-----18---x--18------18--x--18------18---x--18---|
B|--18---x--18-----18---x--18------17--x--17------17---x--17---|
G|-------------------------------------------------------------|
D|-------------------------------------------------------------|
A|-------------------------------------------------------------|
E|-------------------------------------------------------------|
						       Repeat X8

Bridge:
E|-------------------------------------------------------------|
B|-6-6-6-6-6-6-6-6-3-3-3-3-3-3-3-3-3-3-3-3-3-3-3---3-3-3-3-3-3-|
G|-3-3-3-3-3-3-3-3-3-5-5-5-5-5-5-3-3-3-3-3-3-3-3---3-3-3-3-3-3-|
D|-3-3-3-3-3-3-3-3-3-3-3-3-3-3-3-3-3-3-3-3-3-3-3-5-5-5-5-5-5-5-|
A|-------------------------------------------------------------|
E|-------------------------------------------------------------|

Solo:
E|------------------------17^-----17--15----15-----------------|
B|--18^----(18)---18--15-----------------18----18^-------------|
G|----------------------------------------------------17--17---|
D|-------------------------------------------------------------|
A|-------------------------------------------------------------|
E|-------------------------------------------------------------|

E|-------------------------------------------------------------|
B|-------------------------------------------------------------|
G|--15---------------------------------------------------------|
D|-------17--15--17---15--17-----------------------------------|
A|---------------------------15---15--15-----15^------(15)~~~~-|
E|-------------------------------------------------------------|

E|-------------------------------------------------------------|
B|-------------------------------------------------------------|
G|-------------------------------------------------------------|
D|-------------------------------------------------------------|
A|-15^~~~-15^~~~-15^~~~--15^~~~--15^~~~--15^~~~--15^~~~--15^~~-|
E|-------------------------------------------------------------|

E|-------------------------------------------------------------|
B|-------------------------------------------------------------|
G|-------------------------------------------------------------|
D|-------------------------------------------------------------|
A|-15-13-15^---(16)---15^---15----------15--13^--------13-15-13|
E|------------------------------15--13-----------13-15---------|

E|-------------------------------------------------------------|
B|-------------------------------------------------------------|
G|-------------------------------------------------------------|
D|-------------------------------------------------3--5--3--5--|
A|------------13------13-15-13-----------3--1-1-3--------------|
E|--15--13-15-----15------------15-1^-3------------------------|

E|--------------------------------------------------------6----|
B|--------------5-----------------6--8^----(8)---6--6--8-------|
G|--3-----3-5^-----3--5--3---57--------------------------------|
D|-----5-------------------------------------------------------|
A|-------------------------------------------------------------|
E|-------------------------------------------------------------|

E|-8^---(8)--6--8-8^--8--6--8--6---6---------------------------|
B|--------------------------------8--8-6-8-6---6---------------|
G|-------------------------------------------7---75-3-5-3--3-3-|
D|---------------------------------------------------------5---|
A|-------------------------------------------------------------|
E|-------------------------------------------------------------|

E|------------------------3-x----------------------------------|
B|-------------------5-3--3-x-5--x-x-x-x-5--5^--5~-------------|
G|---3-5----------3--5-3------5--x-x-x-x-5--5^--5~-5^--5-3--4~-|
D|-5-----5-3--5-5----------------------------------------------|
A|-------------------------------------------------------------|
E|-------------------------------------------------------------|

E|--------------------------------------|
B|--------------------------------------|
G|-----------------------------------10-|
D|--5--3--5--3--5~~~~~~~~~~~---------9--|
A|-----------------------------------10-|
E|--------------------------------------|

Lyrics:

-chorus-
I like pleasure spiked with pain
and music is my aeroplane
it's my aeroplane
Songbird sweet and sour Jane
and music is my aeroplane
it's my aeroplane
pleasure spiked with pain
that motherfucker's always spiked with pain

Looking in my own eyes, hello
I can find the love I want
Someone better slap me
before I start to rust
before I start to decompose

Looking in my rear view mirror
Looking in my rear view mirror
I can make it disapear
I can make it disapear, have no fear

-repeat chorus-

Sitting in my kitchen
I'm turning into dust again
My melancholy baby
the star of mazy must
push her voice inside of me

I'm overcoming gravity
I'm overcoming gravity
It's easy when you're sad to be
It's easy when you're sad
Saddle up me

-repeat chorus-

Just one note could make me float
could make me float away
One note from the song
she wrote could fuck me where I lay
Just one note could make me choke
one note that's not a lie
Just on enote could cut my throat
one note could make me die

-repeat chorus-

 

 

 
 
 
     
 
 
 

инженеров.netДомашняя страницаНезависимый морской сайтПортал для гитаристовПриколы, юмор, анекдоты

 
обновлен 24.12.2011
в сети с 06.03.2004
 
 
Неофициальный морской сайт Домашняя страница Яндекс цитирования Internet Map Rambler's Top100
Учет посещений на народе

все тексты песен являются собственностью их автора. песени взяты из открытых источников. на сайте размещены с целью ознакомления. при использовании материалов сайта ссылка на сайт обязательна.

по всем вопросам стучитесь в асю или пишите на электропочту

идея, дизайн, редактирование Леха ZaG Загрядский

zagstudio