Аккорды для всех - сайт народных аккордов
 
Аккорды и тексты песен
Guitar Pro табулатуры
Уроки игры на гитаре
Таблица аккордов
Бесплатные программы для музыкантов
Фотографии музыкантов
Видеоклипы
Каталог ссылок
Обратная связь
На главную страницу
 
 
     
 
 

Аккорды, песни, текст, табулатура



Red Hot Chili Peppers - Transcending 


Gtr I
E|------------------------------------------|
B|------------------------------------------|
G|------------------------------------------|
D|-9s11-11-11-(11)-11-11-11s9-9-9-9-9-9-9-9-|
A|-7s=9--9--9--(9)--9--9--9s7-7-7-7-7-7-7-7-|
E|------------------------------------------|

E|-------------------------------------------------|
B|-------------------------------------------------|
G|-------------------------------------------------|
D|-9s11-11-11-(11)-11-11-11-(11)-11s14-14-14-14-14-|
A|-7s=9--9--9--(9)--9--9--9--(9)--9s12-12-12-12-12-|
E|-------------------------------------------------|

E|------------------------------------------|
B|------------------------------------------|
G|------------------------------------------|
D|-9s11-11-11-(11)-11-11-11s9-9-9-9-9-9-9-9-|
A|-7s=9--9--9--(9)--9--9--9s7-7-7-7-7-7-7-7-|
E|------------------------------------------|

E|---------------------------------------|
B|---------------------------------------|
G|---------------------------------------|
D|-9s11-11-11-11-11-11-11----------------|
A|-7s=9--9--9--9--9--9--9--9-9-9-9-9-9-9-|
E|-------------------------7-7-7-7-7-7-7-|

E|------------------------------------------|
B|------------------------------------------|
G|------------------------------------------|
D|-9s11-11-11-(11)-11-11-11s9-9-9-9-9-9-9-9-|
A|-7s=9--9--9--(9)--9--9--9s7-7-7-7-7-7-7-7-|
E|------------------------------------------|

E|-------------------------------------------------|
B|-------------------------------------------------|
G|-------------------------------------------------|
D|-9s11-11-11-(11)-11-11-11-(11)-11s14-14-14-14-14-|
A|-7s=9--9--9--(9)--9--9--9--(9)--9s12-12-12-12-12-|
E|-------------------------------------------------|

E|------------------------------------------|
B|------------------------------------------|
G|------------------------------------------|
D|-9s11-11-11-(11)-11-11-11s9-9-9-9-9-9-9-9-|
A|-7s=9--9--9--(9)--9--9--9s7-7-7-7-7-7-7-7-|
E|------------------------------------------|

E|---------------------------------------|
B|---------------------------------------|
G|---------------------------------------|
D|-9s11-11-11-11-11-11-11----------------|
A|-7s=9--9--9--9--9--9--9--9-9-9-7-7-7-7-|
E|-------------------------7-7-7-5-5-5-5-|

E|------------------------------------------|
B|------------------------------------------|
G|------------------------------------------|
D|-9s11-11-11-(11)-11-11-11s9-9-9-9-9-9-9-9-|
A|-7s=9--9--9--(9)--9--9--9s7-7-7-7-7-7-7-7-|
E|------------------------------------------|

E|-------------------------------------------------|
B|-------------------------------------------------|
G|-------------------------------------------------|
D|-9s11-11-11-(11)-11-11-11-(11)-11s14-14-14-14-14-|
A|-7s=9--9--9--(9)--9--9--9--(9)--9s12-12-12-12-12-|
E|-------------------------------------------------|

E|------------------------------------------|
B|------------------------------------------|
G|------------------------------------------|
D|-9s11-11-11-(11)-11-11-11s9-9-9-9-9-9-9-9-|
A|-7s=9--9--9--(9)--9--9--9s7-7-7-7-7-7-7-7-|
E|------------------------------------------|

E|---------------------------------------|
B|---------------------------------------|
G|---------------------------------------|
D|-9s11-11-11-11-11-11-11----------------|
A|-7s=9--9--9--9--9--9--9--9-9-9-7-7-7-7-|
E|-------------------------7-7-7-5-5-5-5-|

 Pre-Chorus
  Gtr II
E|---------------------------------------------|
B|---------------------------------------------|
G|-9s11-11-11-11--11--11-11-11-9-9-9-9-8-8-8-8-|
D|---------------------------------------------|
A|-7s=9--9--9--9---9---9--9--9-7-7-7-7-6-6-6-6-|
E|---------------------------------------------|
|
| Gtr I
E|---------------------------------------------|
B|---------------------------------------------|
G|---------------------------------------------|
D|-9s===11-11-11-(11)-11-11-11s9-9-9-9-9-9-9-9-|
A|-7s====9--9--9--(9)--9--9--9s7-7-7-7-7-7-7-7-|
E|---------------------------------------------|

E|----------------------------------------------------|
B|----------------------------------------------------|
G|-8s=9--9--9---9---9--9--9---9---9s=6--6--6s=8--8--8-|
D|----------------------------------------------------|
A|-6s=7--7--7---7---7--7--7---7---7s=4--4--4s=6--6--6-|
E|----------------------------------------------------|
|
E|-------------------------------------------------|
B|-------------------------------------------------|
G|-------------------------------------------------|
D|-9s11-11-11-(11)-11-11-11-(11)-11s14-14-14-14-14-|
A|-7s=9--9--9--(9)--9--9--9--(9)--9s12-12-12-12-12-|
E|-------------------------------------------------|

E|------------------------------------------|
B|------------------------------------------|
G|-8s11-11-11--11--11-11-11s9-9-9-9s8-8-8-8-|
D|------------------------------------------|
A|-6s=9--9--9---9---9--9--9s7-7-7-7s6-6-6-6-|
E|------------------------------------------|
|
E|------------------------------------------|
B|------------------------------------------|
G|------------------------------------------|
D|-9s11-11-11-(11)-11-11-11s9-9-9-9-9-9-9-9-|
A|-7s=9--9--9--(9)--9--9--9s7-7-7-7-7-7-7-7-|
E|------------------------------------------|

E|----------------------------------------|
B|----------------------------------------|
G|-8s=9--9--9--9--9--9--9s6-6-6-6s4-4-4-4-|
D|----------------------------------------|
A|-6s=7--7--7--7--7--7--7s4-4-4-4s2-2-2-2-|
E|----------------------------------------|
|
E|----------------------------------------|
B|----------------------------------------|
G|----------------------------------------|
D|-9s11-11-11-11-11-11-11-----------------|
A|-7s=9--9--9--9--9--9--9---9-9-9-9-9-7-7-|
E|--------------------------7-7-7-7-7-5-5-|

 Chorus
  Gtr I
E|------------------------------------|
B|------------------------------------|
G|-------------9h11-------------------|
D|---9h11-(11)------9h11---11p9-------|
A|-9---------------------9------9-7---|
E|----------------------------------9-|

E|---------------------------------|
B|---------------------------------|
G|---------------------------------|
D|-------7----------9--------------|
A|---9------------9------11p9----0-|
E|-7---7---7h9S11-----11------11---|

E|------------------------------------|
B|------------------------------------|
G|-------------9h11-------------------|
D|---9h11-(11)------9h11---11p9-------|
A|-9---------------------9------9-7---|
E|----------------------------------9-|

E|---------------------------------|
B|---------------------------------|
G|---------------------------------|
D|-------7----------9--------------|
A|---9------------9------11p9----0-|
E|-7---7---7h9S11-----11------11---|

E|------------------------------------|
B|------------------------------------|
G|-------------9h11-------------------|
D|---9h11-(11)------9h11---11p9-------|
A|-9---------------------9------9-7---|
E|----------------------------------9-|

E|---------------------------------|
B|---------------------------------|
G|---------------------------------|
D|-------7----------9--------------|
A|---9------------9------11p9----0-|
E|-7---7---7h9S11-----11------11---|

E|------------------------------------|
B|------------------------------------|
G|-------------9h11------9------------|
D|---9h11-(11)------9h11---11p9-------|
A|-9---------------------9------9-7---|
E|----------------------------------9-|

E|---------------------------------|
B|---------------------------------|
G|---------------------------------|
D|-------7----------9--------------|
A|---9------------9------11p9----0-|
E|-7---7---7h9S11-----11------11---|

 Verse
E|------------------------------------------|
B|------------------------------------------|
G|------------------------------------------|
D|-9s11-11-11-(11)-11-11-11s9-9-9-9-9-9-9-9-|
A|-7s=9--9--9--(9)--9--9--9s7-7-7-7-7-7-7-7-|
E|------------------------------------------|

E|-------------------------------------------------|
B|-------------------------------------------------|
G|-------------------------------------------------|
D|-9s11-11-11-(11)-11-11-11-(11)-11s14-14-14-14-14-|
A|-7s=9--9--9--(9)--9--9--9--(9)--9s12-12-12-12-12-|
E|-------------------------------------------------|

E|------------------------------------------|
B|------------------------------------------|
G|------------------------------------------|
D|-9s11-11-11-(11)-11-11-11s9-9-9-9-9-9-9-9-|
A|-7s=9--9--9--(9)--9--9--9s7-7-7-7-7-7-7-7-|
E|------------------------------------------|

E|---------------------------------------|
B|---------------------------------------|
G|---------------------------------------|
D|-9s11-11-11-11-11-11-11----------------|
A|-7s=9--9--9--9--9--9--9--9-9-9-9-9-9-9-|
E|-------------------------7-7-7-7-7-7-7-|

E|------------------------------------------|
B|------------------------------------------|
G|------------------------------------------|
D|-9s11-11-11-(11)-11-11-11s9-9-9-9-9-9-9-9-|
A|-7s=9--9--9--(9)--9--9--9s7-7-7-7-7-7-7-7-|
E|------------------------------------------|

E|-------------------------------------------------|
B|-------------------------------------------------|
G|-------------------------------------------------|
D|-9s11-11-11-(11)-11-11-11-(11)-11s14-14-14-14-14-|
A|-7s=9--9--9--(9)--9--9--9--(9)--9s12-12-12-12-12-|
E|-------------------------------------------------|

E|------------------------------------------|
B|------------------------------------------|
G|------------------------------------------|
D|-9s11-11-11-(11)-11-11-11s9-9-9-9-9-9-9-9-|
A|-7s=9--9--9--(9)--9--9--9s7-7-7-7-7-7-7-7-|
E|------------------------------------------|

E|---------------------------------------|
B|---------------------------------------|
G|---------------------------------------|
D|-9s11-11-11-11-11-11-11----------------|
A|-7s=9--9--9--9--9--9--9--9-9-9-9-9-9-9-|
E|-------------------------7-7-7-7-7-7-7-|

E|------------------------------------------|
B|------------------------------------------|
G|------------------------------------------|
D|-9s11-11-11-(11)-11-11-11s9-9-9-9-9-9-9-9-|
A|-7s=9--9--9--(9)--9--9--9s7-7-7-7-7-7-7-7-|
E|------------------------------------------|

E|-------------------------------------------------|
B|-------------------------------------------------|
G|-------------------------------------------------|
D|-9s11-11-11-(11)-11-11-11-(11)-11s14-14-14-14-14-|
A|-7s=9--9--9--(9)--9--9--9--(9)--9s12-12-12-12-12-|
E|-------------------------------------------------|

E|------------------------------------------|
B|------------------------------------------|
G|------------------------------------------|
D|-9s11-11-11-(11)-11-11-11s9-9-9-9-9-9-9-9-|
A|-7s=9--9--9--(9)--9--9--9s7-7-7-7-7-7-7-7-|
E|------------------------------------------|

E|---------------------------------------|
B|---------------------------------------|
G|---------------------------------------|
D|-9s11-11-11-11-11-11-11----------------|
A|-7s=9--9--9--9--9--9--9--9-9-9-9-9-9-9-|
E|-------------------------7-7-7-7-7-7-7-|

 Pre-chorus 2
  Gtr II
E|---------------------------------------------|
B|---------------------------------------------|
G|-9s11-11-11-11--11--11-11-11-9-9-9-9-8-8-8-8-|
D|---------------------------------------------|
A|-7s=9--9--9--9---9---9--9--9-7-7-7-7-6-6-6-6-|
E|---------------------------------------------|
|
| Gtr I
E|---------------------------------------------|
B|---------------------------------------------|
G|---------------------------------------------|
D|-9s===11-11-11-(11)-11-11-11s9-9-9-9-9-9-9-9-|
A|-7s====9--9--9--(9)--9--9--9s7-7-7-7-7-7-7-7-|
E|---------------------------------------------|

E|----------------------------------------------------|
B|----------------------------------------------------|
G|-8s=9--9--9---9---9--9--9---9---9s=6--6--6s=8--8--8-|
D|----------------------------------------------------|
A|-6s=7--7--7---7---7--7--7---7---7s=4--4--4s=6--6--6-|
E|----------------------------------------------------|
|
E|-------------------------------------------------|
B|-------------------------------------------------|
G|-------------------------------------------------|
D|-9s11-11-11-(11)-11-11-11-(11)-11s14-14-14-14-14-|
A|-7s=9--9--9--(9)--9--9--9--(9)--9s12-12-12-12-12-|
E|-------------------------------------------------|

E|------------------------------------------|
B|------------------------------------------|
G|-8s11-11-11--11--11-11-11s9-9-9-9s8-8-8-8-|
D|------------------------------------------|
A|-6s=9--9--9---9---9--9--9s7-7-7-7s6-6-6-6-|
E|------------------------------------------|
|
E|------------------------------------------|
B|------------------------------------------|
G|------------------------------------------|
D|-9s11-11-11-(11)-11-11-11s9-9-9-9-9-9-9-9-|
A|-7s=9--9--9--(9)--9--9--9s7-7-7-7-7-7-7-7-|
E|------------------------------------------|

E|----------------------------------------|
B|----------------------------------------|
G|-8s=9--9--9--9--9--9--9s6-6-6-6s4-4-4-4-|
D|----------------------------------------|
A|-6s=7--7--7--7--7--7--7s4-4-4-4s2-2-2-2-|
E|----------------------------------------|
|
E|----------------------------------------|
B|----------------------------------------|
G|----------------------------------------|
D|-9s11-11-11-11-11-11-11-----------------|
A|-7s=9--9--9--9--9--9--9---9-9-9-9-9-9-9-|
E|--------------------------7-7-7-7-7-7-7-|

 Chorus
  Gtr I
                 ~~
E|------------------------------------|
B|------------------------------------|
G|-------------9h11-------------------|
D|---9h11-(11)------9h11---11p9-------|
A|-9---------------------9------9-7---|
E|----------------------------------9-|

E|---------------------------------|
B|---------------------------------|
G|---------------------------------|
D|-------7----------9--------------|
A|---9------------9------11p9----0-|
E|-7---7---7h9S11-----11------11---|

                 ~~
E|------------------------------------|
B|------------------------------------|
G|-------------9h11-------------------|
D|---9h11-(11)------9h11---11p9-------|
A|-9---------------------9------9-7---|
E|----------------------------------9-|

E|---------------------------------|
B|---------------------------------|
G|---------------------------------|
D|-------7----------9--------------|
A|---9------------9------11p9----0-|
E|-7---7---7h9S11-----11------11---|

                 ~~
E|------------------------------------|
B|------------------------------------|
G|-------------9h11-------------------|
D|---9h11-(11)------9h11---11p9-------|
A|-9---------------------9------9-7---|
E|----------------------------------9-|

E|---------------------------------|
B|---------------------------------|
G|---------------------------------|
D|-------7----------9--------------|
A|---9------------9------11p9----0-|
E|-7---7---7h9S11-----11------11---|

                 ~~
E|------------------------------------|
B|------------------------------------|
G|-------------9h11------9------------|
D|---9h11-(11)------9h11---11p9-------|
A|-9---------------------9------9-7---|
E|----------------------------------9-|

E|---------------------------------|
B|---------------------------------|
G|---------------------------------|
D|-------7----------9--------------|
A|---9------------9------11p9----0-|
E|-7---7---7h9S11-----11------11---|

 Interlude & Outro
E|---------------------------------------------------|
B|---------------------------------------------------|
G|----------------------11----11h13----11-(11)----13-|
D|-----------11h13-(13)------------------------------|
A|-9h11-(11)---------------11-------11---------11----|
E|---------------------------------------------------|

E|---------------------------------------|
B|---------------------------------------|
G|-15-13-(13)-13-------13-13-13-11-11-11-|
D|-11-11-(11)-11-14-14-14-14-14-13-13-13-|
A|---------------11-11-------------------|
E|---------------------------------------|

E|-----------------------------------------------------|
B|-----------------------------------------------------|
G|-------11-11-(11)-11-13-13-(13)-13-13-13-11-13-13-11-|
D|-11h13-13-13-(13)-13-13-13-(13)-13-13-13-13-13-13-11-|
A|-11--------------------------------------------------|
E|-----------------------------------------------------|

E|-------------------------------------------------|
B|-------------------------------------------------|
G|-15-15-15-13-13-13----------13-13-13-13-11-11-11-|
D|-11-11-11-11-11-11-14-14-14-14-14-14-14-13-13-13-|
A|-------------------11-11-11----------------------|
E|-------------------------------------------------|

E|-----------------------------------------------|
B|-----------------------------------------------|
G|-------11-(11)-11-11h13-(13)-13-13-11-13-13-11-|
D|-11h13-13-(13)-13-13---------13-13-13-13-13-11-|
A|-11--------------------------------------------|
E|-----------------------------------------------|

E|---------------------------------------|
B|---------------------------------------|
G|-15-15-15-13-13-13---------13-13-------|
D|-11-11-11-11-11-11-14-(14)-14-14-14-13-|
A|-------------------11-(11)-11-11-11-11-|
E|---------------------------------------|

E|-----------------------------|-----------------------------|
B|-----------------------------|-----------------------------|
G|-8-8-8-(8)-8-8-8-8-8-8-8-x-x-|-8-8-8-(8)-8-9-9-9-9-9-9-x-x-|
D|-9-9-9-(9)-9-9-9-9-9-9-9-x-x-|-9-9-9-(9)-9-9-9-9-9-9-9-x-x-|
A|-9-9-9-(9)-9-9-9-9-9-9-9-x-x-|-7-7-7-(7)-7-7-7-7-7-7-7-x-x-|
E|-7-7-7-(7)-7-7-7-7-7-7-7-x-x-|-----------------------------|

E|-----------------------------|-----------------------------|
B|-----------------------------|-----------------------------|
G|-8-8-8-(8)-8-8-8-8-8-8-8-x-x-|-8-8-8-(8)-8-9-9-9-9-9-9-x-x-|
D|-9-9-9-(9)-9-9-9-9-9-9-9-x-x-|-9-9-9-(9)-9-9-9-9-9-9-9-x-x-|
A|-9-9-9-(9)-9-9-9-9-9-9-9-x-x-|-7-7-7-(7)-7-7-7-7-7-7-7-x-x-|
E|-7-7-7-(7)-7-7-7-7-7-7-7-x-x-|-----------------------------|

E|-----------------------------|------------------------------|
B|-----------------------------|------------------------------|
G|-8-8-8-(8)-8-8-8-8-8-8-8-x-x-|-8-8-8-8-8-9-9-9-9-9-9-9-9-9/-|
D|-9-9-9-(9)-9-9-9-9-9-9-9-x-x-|-9-9-9-9-9-9-9-9-9-9-9-9-9-9/-|
A|-9-9-9-(9)-9-9-9-9-9-9-9-x-x-|-7-7-7-7-7-7-7-7-7-7-7-7-7-7/-|
E|-7-7-7-(7)-7-7-7-7-7-7-7-x-x-|------------------------------|

E|------------------------------------------|
B|----------------------------9--9--9--9--9-|
G|-11-11-11-(11)-11-11-11-11-11-11-11-11-11-|
D|-11-11-11-(11)-11-11-11-11-11-11-11-11-11-|
A|--9--9--9--(9)--9--9--9--9--9--9--9--9--9-|
E|--9--9--9--(9)--9--9--9--9--9--9--9--9--9-|

E|-----------------9--9--9--9--9--9--9--9--9-|
B|--9--9--9--9--9--9--9--9--9--9--9--9--9--9-|
G|-11-11-11-11-11-11-11-11-11-11-11-11-11-11-|
D|-11-11-11-11-11-11-11-11-11-11-11-11-11-11-|
A|--9--9--9--9--9--9--9--9--9--9--9--9--9--9-|
E|--9--9--9--9--9--9--9--9--9--9--9--9--9--9-|

E|--9--9--9--9--9--9--9--9--9--9--9--9--9--9-|
B|--9--9--9--9--9--9--9--9--9--9--9--9--9--9-|
G|-11-11-11-11-11-11-11-11-11-11-11-11-11-11-|
D|-11-11-11-11-11-11-11-11-11-11-11-11-11-11-|
A|--9--9--9--9--9--9--9--9--9--9--9--9--9--9-|
E|--9--9--9--9--9--9--9--9--9--9--9--9--9--9-|

E|--9--9--9--9--9--9--9--9--9--9--9--9--9--9-|
B|--9--9--9--9--9--9--9--9--9--9--9--9--9--9-|
G|-11-11-11-11-11-11-11-11-11-11-11-11-11-11-|
D|-11-11-11-11-11-11-11-11-11-11-11-11-11-11-|
A|--9--9--9--9--9--9--9--9--9--9--9--9--9--9-|
E|--9--9--9--9--9--9--9--9--9--9--9--9--9--9-|

E|--------12-(12)--(12)-15-(15)-|
B|--------12-(12)--(12)-14-(14)-|
G|--------12-(12)--(12)---------|
D|------------------------------|
A|------------------------------|
E|-0--(0)-----------------------|

E|-----------------------------------------|
B|-------------------12-(12)--(12)-14-(14)-|
G|-------------------12-(12)--(12)-14-(14)-|
D|-----------------------------------------|
A|-----------------------------------------|
E|-0-----(0)-(0)-(0)-----------------------|

E|-------------------12-(12)--(12)---|
B|-------------------12-(12)--(12)---|
G|-------------------12-(12)--(12)---|
D|-----------------------------------|
A|---------------------------------x-|
E|-0-----(0)-(0)-(0)---------------x-|

E|--------------------------------------------|
B|--------------------------------------------|
G|--------------------------------------------|
D|-11-11-11-12-12-12s7-7-7-5-5-5--------------|
A|-----------------------------------5-7b11==-|
E|--9--9--9-10-10-10s5-5-5-3-3-3-5h7----------|

E|-----------------12-(12)--(12)-------------------------|
B|---------------0-12-(12)--(12)-15b17r(15)-15b19==(15)r-|
G|-----------------12-(12)--(12)-------------------------|
D|-------------------------------------------------------|
A|-(7)--(7)-(7)r-----------------------------------------|
E|-------------------------------------------------------|

E|------------12-(12)--(12)------------|
B|------------12-(12)--(12)-15----(15)-|
G|----------0-12-(12)--(12)-14b16r(14)-|
D|-------------------------------------|
A|-------------------------------------|
E|-0----(0)----------------------------|

E|-------------------12-(12)--(12)-----|
B|-------------------12-(12)--(12)-----|
G|-------------------12-(12)--(12)-0---|
D|-------------------------------------|
A|-------------------------------------|
E|-0-----(0)-(0)-(0)-----------------x-|

E|---------------------------------------|
B|---------------------------------------|
G|---------------------------------------|
D|-11-11-11-12-12-12s7-9s7-5-5-5-7s9-----|
A|---------------------------------------|
E|--9--9--9-10-10-10s5-7s5-3-3-3-5s7-0-0-|

E|----------------12-(12)--(12)-------|
B|----------------12-(12)--(12)-15----|
G|----------------12-(12)--(12)-14b16-|
D|-7s9s12s17s23-0---------------------|
A|------------------------------------|
E|------------------------------------|

E|-------------------12-(12)--(12)-------|
B|-------------------12-(12)--(12)-15b19-|
G|-------------------12-(12)--(12)-------|
D|---------------------------------------|
A|---------------------------------------|
E|-0-----(0)-(0)-(0)---------------------|

E|-------------------12-(12)--(12)-----|
B|-------------------12-(12)--(12)-----|
G|-------------------12-(12)--(12)-0---|
D|-------------------------------------|
A|-----------------------------------x-|
E|-0-----(0)-(0)-(0)-----------------x-|

E|-----------------------------------------|
B|-----------------------------------------|
G|-----------------------------------------|
D|-11-11-11-12-12-12s7-7-7-5-5-5-----------|
A|-----------------------------------5-7b9r|
E|--9--9--9-10-10-10s5-5-5-3-3-3-5h7-------|

E|-------x-12-(12)--(12)-12-----(12)-|
B|-------x-12-(12)--(12)-12-----(12)-|
G|-------x-12-(12)--(12)-12-----(12)-|
D|-----------------------------------|
A|=(7)-------------------------------|
E|-----------------------------------|

E|-----x-12-(12)------------|------------12-(12)-|
B|-----x-12-(12)------------|------------12-(12)-|
G|-----x-12-(12)--0-----(0)-|------------12-(12)-|
D|--------------------------|--------------------|
A|--------------------------|--------------------|
E|-0------------------------|-0------(0)---------|

E|--------------------------------------------|
B|--------------------------------------------|
G|--------------------------------------------|
D|-11-11-11-12-12-12s7-7-7-5-5-5--------------|
A|-----------------------------------5-7b11r=-|
E|--9--9--9-10-10-10s5-5-5-3-3-3-5h7----------|

E|-------------12-----(12)-(12)-(12)-|--------12-|------------|
B|-------------12-----(12)-(12)-(12)-|--------12-|------------|
G|-----------0-12-----(12)-(12)-(12)-|--------12-|------------|
D|-----------------------------------|-----------|----------5-|
A|-(7)---(7)-------------------------|-----------|------------|
E|-----------------------------------|-0---------|-0----------|

E|---------------------------------------------|---|-----------|
B|---------------------------------------------|---|-----------|
G|---------------------------------------------|---|-----------|
D|11-11-11-12-12-12s7-7-7-5-5-5----------------|---|-----------|
A|----------------------------------5-7b11r(7)-|-7-|-(7)-(7)-7-|
E|-9--9--9-10-10-10s5-5-5-3-3-3-5h7------------|---|-----------|

E|---------------------------------|-----------------|
B|---------------------------------|-----------------|
G|---------------------------------|-----------------|
D|---------------------------------|-----------------|
A|-(7)-(7)-7--(7)--7---7---(7)-7---|-(7)----(7)--(7)-|
E|---------------------------------|-----------------|

E|---------------|--------------------|
B|---------------|--------0-------(0)-|
G|---------------|--------0-------(0)-|
D|---------------|--------------------|
A|-7------(7)----|-(7)----------------|
E|---------------|--------------------|

E|------------12-(12)--(12)-14-(14)-|
B|------------12-(12)--(12)-14-(14)-|
G|------------12-(12)--(12)---------|
D|----------------------------------|
A|----------------------------------|
E|-0------(0)-----------------------|

E|-----------------------------------15-17b19-|
B|----------------17b20==(17)--(17)r----------|
G|--------------------------------------------|
D|--------------------------------------------|
A|--------------------------------------------|
E|--0-----(0)-(0)-----------------------------|

E|-------------------------|
B|-------------------------|
G|-----------------()---()-|
D|-------------------------|
A|-------------------------|
E|-0------(0)-(0)----------|

E|-------------------------------------|
B|-------------------------------------|
G|-------------------------------------|
D|-11-11-11-12-12-12s7-7-7-5-5-5-7/----|
A|---------------------------------7-7-|
E|--9--9--9-10-10-10s5-5-5-3-3-3-5s0-0-|

E|-----------------12-(12)--------|----------------------------|
B|-15--------------12-(12)--------|---------------17b19==(17)r-|
G|-14b16-----------12-(12)----()--|------------------------x-0-|
D|--------------------------------|----------------------------|
A|--------------------------------|----------------------------|
E|-------0-----(0)----------------|-0-----(0)-(0)--------------|

E|---------------12-(12)-|
B|---------------12-(12)-|
G|---------------12-(12)-|
D|-----------------------|
A|-----------------------|
E|-0-----(0)-(0)---------|

E|------------------------------------------|-----|
B|------------------------------------------|-----|
G|------------------------------------------|-----|
D|-11-11-11-12-12-12s7-7-7-5-5-5------------|-----|
A|-----------------------------------5-7b11r|=(7)-|
E|--9--9--9-10-10-10s5-5-5-3-3-3-5h7--------|-----|

E|------------15-----(15)-(15)-(15)---|
B|------------15b16==(15)-(15)-(15)r--|
G|------------------------------------|
D|------------------------------------|
A|------------------------------------|
E|-0------(0)-------------------------|

E|------------12-(12)--(12)-------|
B|------------12-(12)--(12)-------|
G|------------12-(12)--(12)-0-0-0-|
D|--------------------------0-0-0-|
A|--------------------------------|
E|-0------(0)---------------------|

E|---------------------------|------------*-|
B|----------11-(11)-0---0----|-(0)--------*-|
G|----------10-(10)-0---0----|-(0)--------*-|
D|-11-11-11---------0---0----|-(0)--------*-|
A|------------------0---0----|-(0)--------*-|
E|--9--9--9---------0---0----|-(0)--------*-|

 

 

 
 
 
     
 
 
 

инженеров.netДомашняя страницаНезависимый морской сайтПортал для гитаристовПриколы, юмор, анекдоты

 
обновлен 24.12.2011
в сети с 06.03.2004
 
 
Неофициальный морской сайт Домашняя страница Яндекс цитирования Internet Map Rambler's Top100
Учет посещений на народе

все тексты песен являются собственностью их автора. песени взяты из открытых источников. на сайте размещены с целью ознакомления. при использовании материалов сайта ссылка на сайт обязательна.

по всем вопросам стучитесь в асю или пишите на электропочту

идея, дизайн, редактирование Леха ZaG Загрядский

zagstudio