Аккорды для всех - сайт народных аккордов
 
Аккорды и тексты песен
Guitar Pro табулатуры
Уроки игры на гитаре
Таблица аккордов
Бесплатные программы для музыкантов
Фотографии музыкантов
Видеоклипы
Каталог ссылок
Обратная связь
На главную страницу
 
 
     
 
 

Аккорды, песни, текст, табулатура



Red Hot Chili Peppers - Behind The Sun 


Intro
E|------------------------------------------------------------|
B|--8-/-7--5--------------------------------------------------|
G|--7---------7-----------------------------------------------|
D|--0------------9--7----9/11---9--7--------------------------|
A|---------------0--0----0------0---0---9---7---9/11--9--9--7-|
E|-----------------------------------------0---0-----0--0---0-|

E|--------------------------------7--|
B|---------------------------------0-|
G|-------------------7-h-9---------7-|
D|--9/11--9---7-h-9----------------0-|
A|--0-----0------------------------7-|
E|---------------------------0--0----|

E|------|
B|------|
G|------|
D|------|
A|----7-|
E|-0----|

E|------------------------------------------------------------|
B|--8-/-7--5--------------------------------------------------|
G|--7---------7-----------------------------------------------|
D|--0------------9--7----9/11---9--7--------------------------|
A|---------------0--0----0------0---0---9---7---9/11--9--9--7-|
E|-----------------------------------------0---0-----0--0---0-|

E|--------------------------------7--|
B|---------------------------------0-|
G|-------------------7-h-9---------7-|
D|--9/11--9---7-h-9----------------0-|
A|--0-----0------------------------7-|
E|---------------------------0--0----|

E|--0----|
B|-----0-|
G|-------|
D|-------|
A|-------|
E|-------|

Verse 1
   (Guitar 1)-Repeat
E|---------7-----7-7-----9----------7-----7-7------9---------7-|
B|---------7-----7-7-----9----------7-----7-7------9---------7-|
G|---------7-----7-7-----9----------7-----7-7------9---------7-|
D|-------------------------------------------------------------|
A|-------------------------------------------------------------|
E|-0--0--------------0-------0--0--------------0-------0--0----|

E|7-7-----9-------7-----7-7---9-|
B|7-7-----9-------7-----7-7---9-|
G|7-7-----9-------7-----7-7---9-|
D|------------------------------|
A|------------------------------|
E|-----0----0--0------------0---|

Verse 1
(Guitar2)
E|--0---0---0---0---0---0---0---0-------0---0---0---0---0---0--|
B|------9---12--12--9---12-12--14-----------9---12-12--14------|
G|--9-----------------------------------9-------------------11-|
D|-------------------------------------------------------------|
A|-------------------------------------------------------------|
E|-------------------------------------------------------------|
                full___
E|---0---0-----------------|
B|-------------9-h-11b-r-9-|
G|--11r--9-----9-----------|
D|-------------------------|
A|-------------------------|
E|-------------------------|

E|--0---0---0---0---0---0---0---0--------0---0---0---0---0---0-|
B|------9---12--12-9---12-12--14---------14-17--14---12--14----|
G|-9-----------------------------------------------------------|
D|-------------------------------------------------------------|
A|-------------------------------------------------------------|
E|-------------------------------------------------------------|
half__        full___
E|-0---0-----------------|
B|-----------9-h-11b-r-9-|
G|-11r-9-----9-----------|
D|-----------------------|
A|-----------------------|
E|-----------------------|

Chorus
E|------------------------------------------------------------|
B|--8-/-7--5--------------------------------------------------|
G|--7---------7-----------------------------------------------|
D|--0------------9--7----9/11---9--7--------------------------|
A|---------------0--0----0------0---0---9---7---9/11--9--9--7-|
E|-----------------------------------------0---0-----0--0---0-|

E|--------------------------------7--|
B|---------------------------------0-|
G|-------------------7-h-9---------7-|
D|--9/11--9---7-h-9----------------0-|
A|--0-----0------------------------7-|
E|---------------------------0--0----|

1st Chorus Fills (Repeat after each chorus)
    Fill 1
E|---(7)--|
B|----(0)-|
G|----(7)-|
D|----(0)-|
A|----(7)-|
E|---(0)--|

    Fill 2
E|--------|
B|--------|
G|--------|
D|--------|
A|--5-/-7-|
E|-0------|

    Fill3
E|-----0----0--0--------0----0-|
B|---3----3-----3/5--5----5----|
G|-----------------------------|
D|-----------------------------|
A|-----------------------------|
E|-----------------------------|

    Fill 4
E|-----0-|
B|-------|
G|-------|
D|-------|
A|-------|
E|-------|

Verse Bridge
E|--------19------------19----19----------19------------19--19-|
B|----17--------17-17----17----------17--------17-17----17-----|
G|-19-------19---------------------19--------19----------------|
D|-------------------------------------------------------------|
A|-------------------------------------------------------------|
E|-------------------------------------------------------------|

2nd Chorus Fills
    Fill 5
E|-------------------|
B|------0------------|
G|------2------------|
D|-----------0--h--2-|
A|-------------------|
E|-------------------|
    Fill 6                           Trill_________
E|--------------------------------------------------|
B|------------------------------------------------3-|
G|------2-p-0---------------------------------------|
D|--------------2-p-0---(2p0)-----------------------|
A|--------------------------------------------------|
E|--------------------------------------------------|
    Fill 7
E|--0------------|
B|----------0----|
G|---------------|
D|-------2-----2-|
A|---------------|
E|---------------|
    Fill 8
E|--------|
B|--------|
G|--------|
D|--------|
A|--------|
E|--------|
Interlude
E|------------------------------3----3------------3---------3--|
B|-------2---3---2---0-----0-------2----2-------------2------3-|
G|--------0---0---0----0-----0-------0----0-------------0------|
D|----2----2----2---2----2-----2-----------------2-------------|
A|--0--------------------------------------------0-------------|
E|-------------------------------------------------------------|

E |3--3--3---0----0--0-----0---0--0--|
B |2--0--2---3/5----5--5---5/7--7--7-|
G|-----------------------------------|
D|-----------------------------------|
A|-----------------------------------|
E|-----------------------------------|

E|------------------------------3----3------------3---------3--|
B|-------2---3---2---0-----0-------2----2-------------2------3-|
G|--------0---0---0----0-----0-------0----0-------------0------|
D|----2----2----2---2----2-----2-----------------2-------------|
A|--0--------------------------------------------0-------------|
E|-------------------------------------------------------------|

E|-3--3--3---0------0--0-0----0--0---|
B|-2--0--2---3/5--5--5---8/10--10-10-|
G|-----------------------------------|
D|-----------------------------------|
A|-----------------------------------|
E|-----------------------------------|

Verse Bridge 2
E|-0----0---0--0--0-----|
B|--3/5--5--3--2--0-h-2-|
G|----------------------|
D|----------------------|
A|----------------------|
E|----------------------|

Fills For 3rd Chorus
    Fill 9
E|---------------|
B|---------------|
G|---------------|
D|---------------|
A|-------7-/-9-7-|
E|------0--------|
    Fill 10
E|-------0-------|
B|-----0----0----|
G|---------------|
D|--2----------2-|
A|---------------|
E|---------------|
     Fill 11
E|----0-h-2---2----5---5---5-|
B|--0--------0----0---0----0-|
G|---------------------------|
D|---------------------------|
A|---------------------------|
E|---------------------------|

 

 

 
 
 
     
 
 
 

инженеров.netДомашняя страницаНезависимый морской сайтПортал для гитаристовПриколы, юмор, анекдоты

 
обновлен 24.12.2011
в сети с 06.03.2004
 
 
Неофициальный морской сайт Домашняя страница Яндекс цитирования Internet Map Rambler's Top100
Учет посещений на народе

все тексты песен являются собственностью их автора. песени взяты из открытых источников. на сайте размещены с целью ознакомления. при использовании материалов сайта ссылка на сайт обязательна.

по всем вопросам стучитесь в асю или пишите на электропочту

идея, дизайн, редактирование Леха ZaG Загрядский

zagstudio