Аккорды для всех - сайт народных аккордов
 
Аккорды и тексты песен
Guitar Pro табулатуры
Уроки игры на гитаре
Таблица аккордов
Бесплатные программы для музыкантов
Фотографии музыкантов
Видеоклипы
Каталог ссылок
Обратная связь
На главную страницу
 
 
     
 
 

Аккорды, песни, текст, табулатура



Red Hot Chili Peppers - Punk Rock Classic 


verse:

E|-----------------------------------------------|
B|-----------------------------------------------|
G|-------7--------8-------9--9--9--9--9--9--9--9-|
D|7------7--------8-------9--9--9--9--9--9--9--9-|
A|7------5--------6-------7--7--7--7--7--7--7--7-|
E|5----------------------------------------------|

Chorus:

G|--12------11-------5------7--------------------|
D|--12------11-------5------7--------7--------//-|
A|--10-------9-------3------5--------7--------//-|
E|-----------------------------------5--------//-|

Part after Chorus:

G|-----12---11---9---8---7---5----------------------------|
D|-----x----x----x---x---x---x---9---8---7---5---4---3----|
A|-----10---9----7---6---5---3---x---x---x---x---x---x----|
E|-------------------------------7---6---5---3---2---1--0-|

Guitarsolo (in Em)

Start with trill at 2/3 speed on b-string: --12h15p12h15p12 and
so on.

Then just fool around with Minor Pent. scale around 12th fret,
and use tremolo-bar.

Outro: (Sweet child o'mine)

E|-----------------15-----14-----|
B|-----15------------------------|
G|---------14--12------14-----14-|
D|12-----------------------------|
A|-------------------------------|
E|-------------------------------|

 

 

 
 
 
     
 
 
 

инженеров.netДомашняя страницаНезависимый морской сайтПортал для гитаристовПриколы, юмор, анекдоты

 
обновлен 24.12.2011
в сети с 06.03.2004
 
 
Неофициальный морской сайт Домашняя страница Яндекс цитирования Internet Map Rambler's Top100
Учет посещений на народе

все тексты песен являются собственностью их автора. песени взяты из открытых источников. на сайте размещены с целью ознакомления. при использовании материалов сайта ссылка на сайт обязательна.

по всем вопросам стучитесь в асю или пишите на электропочту

идея, дизайн, редактирование Леха ZaG Загрядский

zagstudio