Аккорды для всех - сайт народных аккордов
 
Аккорды и тексты песен
Guitar Pro табулатуры
Уроки игры на гитаре
Таблица аккордов
Бесплатные программы для музыкантов
Фотографии музыкантов
Видеоклипы
Каталог ссылок
Обратная связь
На главную страницу
 
 
     
 
 

Аккорды, песни, текст, табулатура



Rammstein - Rammstein


Intro a (four times)
D|-----4h5-----4h5-----4h5--5h4-|
A|-----2h3-----2h3-----2h3--3h2-|
E|-0-0-----0-0-----0-0----------|

Rammstein
Ein Mensch brennt
Rammstein
Fleischgeruch liegt in der Luft
Rammstein
ein Kind stirbt
Rammstein
die Sonne scheint
Intro a
D|-----4h5-----4h5-----4h5--5h4-|
A|-----2h3-----2h3-----2h3--3h2-|
E|-0-0-----0-0-----0-0----------|

в конце intro a (two times0
D|-----------------|
A|-5-2---------5-2-|
E|-3-0--000000-3-0-|
Intro a
Rammstein
ein Flammenmeer
Rammstein
Blut gerinnt auf dem Asphalt
Rammstein
Mutter schreien
Rammstein
die Sonne scheint

Rammstein
ein Massengrab
Rammstein
kein Entrinnen
Rammstein
kein Vogel singt mehr
Rammstein
die Sonne scheint

Solo
E|-7-9-10-9-7-9-10-9-7-9-10-9-7-9-7-9-|

E|-7-9-10-9-7-9-10-9-7-9-10-9-7-9-7-9-|

E|-7-9-10-9-7-9-10-9-7-9-10-9-7-9-7-9-|

E|-7-9-10-9-7-9-10-9-2-3-5-3-2-2h3-|
Rammstein

 

 

 
 
 
     
 
 
 

инженеров.netДомашняя страницаНезависимый морской сайтПортал для гитаристовПриколы, юмор, анекдоты

 
обновлен 24.12.2011
в сети с 06.03.2004
 
 
Неофициальный морской сайт Домашняя страница Яндекс цитирования Internet Map Rambler's Top100
Учет посещений на народе

все тексты песен являются собственностью их автора. песени взяты из открытых источников. на сайте размещены с целью ознакомления. при использовании материалов сайта ссылка на сайт обязательна.

по всем вопросам стучитесь в асю или пишите на электропочту

идея, дизайн, редактирование Леха ZaG Загрядский

zagstudio