Аккорды для всех - сайт народных аккордов
 
Аккорды и тексты песен
Guitar Pro табулатуры
Уроки игры на гитаре
Таблица аккордов
Бесплатные программы для музыкантов
Фотографии музыкантов
Видеоклипы
Каталог ссылок
Обратная связь
На главную страницу
 
 
     
 
 

Аккорды, песни, текст, табулатура



Rammstein - Klavier 


E|---------------------------------------|
B|------10---------8--------------8------|
G|---------------------------10------9---|
D|---10----10---10---10---10----10-10-10-|
A|-0----------0---------0----------------|
E|---------------------------------------|

E|-------------------------------------------|
B|------10---------8-------------------------|
G|---------------------------10---------9----|
D|---10----10---10---10---10----10---10---10-|
A|-0----------0---------0----------0---------|
E|-------------------------------------------|

E|-------------------------------------|
B|------8------------------------------|
G|----------------10---------9---10--9-|
D|---10---10---10----10---10---10--10--|
A|-8---------8----------8--------------|
E|-------------------------------------|

E|---------------------------------|
B|-----8-------7-------------------|
G|---------------------9-------9---|
D|---9---9---9---9---9---9---9---9-|
A|-7-------7-------7-------7-------|
E|---------------------------------|

Sie sagen zu mir
schliess auf diese Tur
die Neugier wird zum Schrei
was wohl dahinter sei
hinter dieser Tur
steht ein Klavier
die Tasten sind staubig
die Saiten sind verstimmt
hinter dieser Tur
sitzt sie am Klavier
doch sie spielt nicht mehr
ach das ist so lang her

dort am Klavier
lauschte ich ihr
und wenn ihr Spiel begann
hielt ich den Atem an

Sie sagte zu mir
ich bleib immer bei dir
doch es hatte nur den Schein
sie spielte fur mich allein
ich goss ihr Blut
ins Feuer meiner Wut
ich verschloss die Tur
man fragte nach ihr

Dort am Klavier
lauschte ich ihr
und wenn ihr Spiel begann
hielt ich den Atem an
dort am Klavier
stand ich bei ihr
es hatte den Schein
sie spielte fur mich allein

Geoffnet ist die Tur
ei wie sie schreien
ich hore die Mutter flehen
der Vater schlagt auf mich ein
man lost sie vom Klavier
und niemand glaubt mir hier
das ich todkrank
von Kummer und Gestank

Dort am Klavier
lauschte ich ihr
und wenn ihr Spiel begann
hielt ich den Atem an
Dort am Klavier
lauschte sie mir
und als mein Spiel begann
hielt sie den Atem an

 

 

 
 
 
     
 
 
 

инженеров.netДомашняя страницаНезависимый морской сайтПортал для гитаристовПриколы, юмор, анекдоты

 
обновлен 24.12.2011
в сети с 06.03.2004
 
 
Неофициальный морской сайт Домашняя страница Яндекс цитирования Internet Map Rambler's Top100
Учет посещений на народе

все тексты песен являются собственностью их автора. песени взяты из открытых источников. на сайте размещены с целью ознакомления. при использовании материалов сайта ссылка на сайт обязательна.

по всем вопросам стучитесь в асю или пишите на электропочту

идея, дизайн, редактирование Леха ZaG Загрядский

zagstudio