Аккорды для всех - сайт народных аккордов
 
Аккорды и тексты песен
Guitar Pro табулатуры
Уроки игры на гитаре
Таблица аккордов
Бесплатные программы для музыкантов
Фотографии музыкантов
Видеоклипы
Каталог ссылок
Обратная связь
На главную страницу
 
 
     
 
 

Аккорды, песни, текст, табулатура



RadioHead - Creep 


1
G|-------------------------------|-----------------------------|
D|-------------------------------|-----------------------------|
A|-------------------------------|-----------------------------|
E|3-------3.----3-3---3-------3--|3-------3.----3-3---3-----3--|

3
G|-------------------------------|-----------------------------|
D|-------------------------------|-----------------------------|
A|2-------2.----2-2---2----------|2-------2.------2---2-----2--|
E|----------------------------2-2|-------------(2)-------------|

5
G|-------------------------------|-----------------------------|
D|-------------------------------|-----------------------------|
A|3-------3.------3---3----------|3-------3.----3-3---3--------|
E|--------------3-------------3--|--------------------------3--|

7
G|-------------------------------|-----------------------------|
D|-------------------------------|-----------------------------|
A|3-------3.----3-3---3-------2--|3-------5.----x-6------------|
E|-------------------------------|--------------------------1--|
                                   When you were here before...

9
G|-------------------------------|-----------------------------|
D|-------------------------------|-----------------------------|
A|-------------------------------|-----------------------------|
E|3-------3.----3-3---3-------3--|3-------3.----3-3---3-----3--|

11
G|-------------------------------|-----------------------------|
D|-------------------------------|-----------------------------|
A|2-------2.----2-2---2----------|2-------2.------2---2-----2-2|
E|----------------------------2-2|-------------(2)-------------|

13
G|-------------------------------|-----------------------------|
D|-------------------------------|-----------------------------|
A|3-------3.------3---3----------|3..-----------3---3----------|
E|--------------3-------------3--|------------3-------------3--|

15
G|-------------------------------|-----------------------------|
D|-------------------------------|------------------------3----|
A|3-------3.------3---3----------|3-------5.---(5)6------------|
E|-------------(3)------------3--|-----------------------------|

17
G|-------------------------------|-----------------------------|
D|-------------------------------|-----------------------------|
A|-------------------------------|-----------------------------|
E|3-------3.----3-3---3-------3--|3-----3.----3-3---3-------3--|

19
G|-------------------------------|-----------------------------|
D|-------------------------------|-----------------------------|
A|2-------2.----2-2---2----------|2-----2.------2---2----------|
E|----------------------------2-2|-----------(2)-----------(2)-|

21
G|-------------------------------|-----------------------------|
D|-------------------------------|--------------------------0~1|
A|3-------3.------3---3----------|3-----3-------3---3----------|
E|--------------3-------------3--|------------3----------------|

23
G|-------------------------------|-----------------------------|
D|-------------------------------|--------------------3--------|
A|3-------3.------3---3-3-3------|3-------5-----x-6------------|
E|--------------3-------------3--|-----------------------------|

Припев:

25
G|--------7----------------------|7---------7------------------|
D|5-------------5-5---5-------5--|----5--------------5---5-----|
A|-------------------------------|-----------------------------|
E|-------------------------------|-----------------------------|

G|--------4----------------------|----4------------------------|
D|-------------------------------|-----------------------------|
A|2------------(2)2---2----------|2---------2---2---2-------2--|
E|----------------------------2--|-----------------------------|

G|-------------------------------|-----------------------------|
D|-------------------------------|----------------------5------|
A|3-------3-------3---3----------|3-----3-------3---3----------|
E|--------------3-------------3--|----------3-3----------------|

31
G|--------5----------------------|-----------------------------|
D|-------------------------------|-----------------------------|
A|3-----------3-3-3---3----------|3---3------------------------|
E|----------------------------3--|-----------------------------|

2-я версия:

33
G|-------------------------------|-----------------------------|
D|-------------------------------|-----------------------------|
A|-------------------------------|-----------------------------|
E|3-------3-----3-3---3-------3--|3-----3-----3-3---3-------3--|

G|-------------------------------|-----------------------------|
D|-------------------------------|-----------------------------|
A|2-------2-----2-2---2-------2--|2-----------2-2---2---2---2--|
E|-------------------------------|-----------------------------|

37
G|-------------------------------|-----------------------------|
D|-------------------------------|-----------------------------|
A|3-------3-------3---3----------|3-----------3-3---3-------2--|
E|--------------3-------------3--|-----------------------------|

G|-------------------------------|-----------------------------|
D|-------------------------------|----------------------3------|
A|3-------------3-3---3----------|3-----5-----x-6--------------|
E|----------------------------3--|-----------------------------|

41
G|-------------------------------|-----------------------------|
D|5-------5-----5-5---5----------|5-----5-----5-5---5-------5--|
A|----------------------------5--|-----------------------------|
E|-------------------------------|-----------------------------|

G|-------------------------------|-----------------------------|
D|-------------------------------|-----------------------------|
A|2---2-2-2-----2-2---2----------|2-----2-------2---2----------|
E|----------------------------2--|------------2------------(2)-|

45
G|-------------------------------|-----------------------------|
D|-------------------------------|-----------------------------|
A|3-------3-------3---3----------|3-----------3-3---3-------2--|
E|--------------3-------------3--|-----------------------------|

G|-------------------------------|-----------------------------|
D|-------------------------------|----------------------3------|
A|3-------3-------3---3----------|3-----5-----5-6--------------|
E|--------------3-------------3--|-----------------------------|

G|-------------------------------|-----------------------------|
D|-------------------------------|-----------------------------|
A|-------------------------------|-----------------------------|
E|3-------3-----3-3---3-------3--|3-----3-----3-3---3-------3--|

51
G|----------------4-4-4----------|------4----------------------|
D|-------------------------------|-----------------------------|
A|2---2---2----------------------|2-----------2-2---2---2---2--|
E|----------------------------2--|-----------------------------|

G|-------------------------------|-----------------------------|
D|-------------------------------|-----------------------------|
A|3-------3-------3---3----------|3-----3-----3-3---3----------|
E|--------------3-------------3--|--------------------------3-3|

G|-------------------------------|-----------------------------|
D|-------------------------------|----------------------3------|
A|3---------------3---3----------|3-----5-----5-6-6---------5--|
E|--------------3-------------3--|-----------------------------|

G|-------------------------------|-----------------------------|
D|-------------------------------|-----------------------------|
A|----------------------------5-5|-----------------------------|
E|3-------3-----3-3---3----------|3-------3-----3-3-x-3-----3--|

G|-------------------------------|----11-----------------------|
D|--------9-------9-119-------9-9|9----------------------------|
A|--------------9----------------|-----------------------------|
E|7------------------------------|------------0-2-5-7-7-7-5----|

61
G|-------------------------------|-----------------------------|
D|-------------------------------|-----------------------------|
A|3-------3-------3---3----------|3---3---3---3-3-5-3---3------|
E|--------------3-------------3--|--------------------------3--|

63
G|-------------------------------|-----------------------------|
D|-------------------------------|-----------------------------|
A|3---3---3---3---3---3---3---3--|3-------5-----x-6-5----------|
E|-------------------------------|--------------------1--------|

65
G|-------------------------------|-----------------------------|
D|--------5-5--------------------|----------------5-7-5---5----|
A|-------------------------------|-----------------------------|
E|3-------------3-3---3-------3--|3---3-3-3-3-3----------------|

G|-------------------------------|-----------------------------|
D|-------------------------------|-----------------------------|
A|2---2-2-2-----2-2-2-2-2-2---2--|2--2--2---2---2---2---2--/5--|
E|-------------------------------|-----------------------------|

G|-------------------------------|-----------------------------|
D|-------------------------------|-----------------------------|
A|3-------3-------3---3---3---2--|3---3---3---3-3---3---3---5--|
E|--------------3----------------|-----------------------------|

G|-------------------------------|-----------------------------|
D|-------------------------------|-----------------------------|
A|3------------------------------|-----------------------------|
E|-------------------------------|-----------------------------|

G|-------------------------------|-----------------------------|
D|-------------------------------|-----------------------------|
A|-------------------------------|-----------------------------|
E|3---------------------------3--|3----------------------------|

75
G|-------------------------------|-----------------------------|
D|-------------------------------|-----------------------------|
A|2---------------------------2--|2----------------------------|
E|-------------------------------|-----------------------------|

G|-------------------------------|-----------------------------|
D|-------------------------------|-----------------------------|
A|3---------------------------3--|3----------------------------|
E|-------------------------------|-----------------------------|

G|-------------------------------|-----------------------------|
D|-------------------------------|-----------------------------|
A|3---------------------------3--|3----------------------------|
E|-------------------------------|-----------------------------|

G|-------------------------------|-----------------------------|
D|-------------------------------|-----------------------------|
A|-------------------------------|-----------------------------|
E|3---------------------------3--|3----------------------------|

G|-------------------------------|-----------------------------|
D|-------------------------------|-----------------------------|
A|2---------------------------2--|2----------------------------|
E|-------------------------------|-----------------------------|

85
G|-------------------------------|-----------------------------|
D|-------------------------------|-----------------------------|
A|3---------------------------3--|3-------------------------3--|
E|-------------------------------|-----------------------------|

G|-------------------------------|
D|-------------------------------|
A|3------------------------------|пропусти это место
E|-------------------------------|

G|-------------------------------|-----------------------------|
D|-------5/7------7/9------------|-----------------------------|
A|-------------------------------|-----------------------------|
E|3------------------------------|-----------------------------|

 

 

 
 
 
     
 
 
 

инженеров.netДомашняя страницаНезависимый морской сайтПортал для гитаристовПриколы, юмор, анекдоты

 
обновлен 24.12.2011
в сети с 06.03.2004
 
 
Неофициальный морской сайт Домашняя страница Яндекс цитирования Internet Map Rambler's Top100
Учет посещений на народе

все тексты песен являются собственностью их автора. песени взяты из открытых источников. на сайте размещены с целью ознакомления. при использовании материалов сайта ссылка на сайт обязательна.

по всем вопросам стучитесь в асю или пишите на электропочту

идея, дизайн, редактирование Леха ZaG Загрядский

zagstudio