Аккорды для всех - сайт народных аккордов
 
Аккорды и тексты песен
Guitar Pro табулатуры
Уроки игры на гитаре
Таблица аккордов
Бесплатные программы для музыкантов
Фотографии музыкантов
Видеоклипы
Каталог ссылок
Обратная связь
На главную страницу
 
 
     
 
 

Аккорды, песни, текст, табулатура



ПятницаЯ с тобой

 

 

 

Аmaj7  H     C             Am7  и т.д. 

иди ко мне и холодно и смешно мне

как будто снег на дне и нет его вода ли слезы ли

не все равно ли все нули равны нулю нам сказали минуту назад

что завтра не будет мы больные люди мы любили мы любим мы будем

но об этом ни слова ни злого не повезло вам

я не верю словам

Сmaj7

я стобой мы ветра двери пропасти

H7

я с тобой нас не спасти стой прости

B7

я с тобой после нежной жестокости

Am7

я с тобой

Сmaj7

я стобой улыбаются улицы

H7

я с тобой волны берегу шепотом

B7

я с тобой наше небо волнуется

Am7

я с тобой пропади оно пропадом

Аmaj7    H   C         Am7

придумай мне имя намекни мне

приснись прикоснись весна не со мной новый снег нет покоя

нет покоя пока я не успокоюсь

не моя дорога ты с высоты в пустоту мой свет твой день где ответ ветра уносит ночью i`m in love with you in love with you

так устал играть выбирать но я так ине успел тебе сказать

 

Аккорды:

Куплет:

Аmaj7 - *02120

------0------

------2------

------1------

------2------

------0------

-------------

H     - *20020

------0------

------2------

------0------

------0------

------2------

-------------

 

C     - *32030

-----0-------

-----3-------

-----0-------

-----2-------

-----3-------

------------

Am7   - *02010

-----0-------

-----1-------

-----0-------

-----2-------

-----0-------

------------

Припев:

Сmaj7 - *35453

-----3-------

-----5-------

-----4-------

-----5-------

-----3-------

------------

H7    - *24242

-----2-------

-----4-------

-----2-------

-----4-------

-----2-------

------------

B7    - *13131

-----1-------

-----3-------

-----1-------

-----3-------

-----1-------

------------

Am7   - *02010

-----0-------

-----1-------

-----0-------

-----2-------

-----0-------

------------

 

 

 
 
 
     
 
 
 

инженеров.netДомашняя страницаНезависимый морской сайтПортал для гитаристовПриколы, юмор, анекдоты

 
обновлен 24.12.2011
в сети с 06.03.2004
 
 
Неофициальный морской сайт Домашняя страница Яндекс цитирования Internet Map Rambler's Top100
Учет посещений на народе

все тексты песен являются собственностью их автора. песени взяты из открытых источников. на сайте размещены с целью ознакомления. при использовании материалов сайта ссылка на сайт обязательна.

по всем вопросам стучитесь в асю или пишите на электропочту

идея, дизайн, редактирование Леха ZaG Загрядский

zagstudio