Аккорды для всех - сайт народных аккордов
 
Аккорды и тексты песен
Guitar Pro табулатуры
Уроки игры на гитаре
Таблица аккордов
Бесплатные программы для музыкантов
Фотографии музыкантов
Видеоклипы
Каталог ссылок
Обратная связь
На главную страницу
 
 
     
 
 

Аккорды, песни, текст, табулатура



Offspring - Want You Bad


Проигрыш:
G|-9-------------------------|
D|-9-9-9-9--11-11-7-7-9-9-9--|
A|-7-9-9-9--11-11-7-7-9-9-9--|
E|---7-7-7--9--9--5-7-7-7-7--|

Версия :
Em(VII)                    Н(VII)
If you could only read my mind
           Em(VII)           Н(VII)          C#(IX)  Am(V)
You would know the things between us, ain't right
I know your arms are open wide
But you're a little on the strange side, I cant lie

Pre-Припев:
Em   Н      C#
Your one advice
           Am
Is you're too nice
       G#
Come around now
 Н        Am
Can't you see

Припев:
	Em Н    C#      Am
	I want you all tatooed
	G# Н        Am
	I want you bad
	Complete me, mistreat me
	I want you to be bad, bad, bad, bad, bad

Версия :
If you could only read my mind
You would know that I feel waited, so long
Someone almost just like you
But with attitude, I've waited, so come on

Pre-Припев:
Get out at close time
Pull out those highlighhts
Come around now can you see

Припев:

Solo:
G|-7-7-777----------------------------|
D|---------9-9-999-5-5-555-7-7-777----|
A|------------------------------------|
E|------------------------------------|

Interlude:
e|----------------------|
B|---------7:-9:-8:-9:--|
G|-9:------8:-7:-9:-8:--|
D|-9:------9:-8:-7:-7:--|
A|-7:-------------------|
E|----------------------|  : - let rin

Dont get me wrong
I know your only being good
But if thats whats wrong
I guess I just misunderstood

Припев:

Million Miles Away
Проигрыш:
B|----------------------------------------------9---9-9-9--|
G|----------------------------------------7-7-7-9---9-9-9--|
D|-------------------7-7-7----------------7-7-7-7:--7-7-7--|
A|-9-9-9-7-7-7-9-9-9-------9-9-9-7Н9--5:--5-5-5------------|
E|---------------------------------------------------------|

Версия :
  F#         Am             Em
There was a time looking through myself
Wanted to pretend if I escaped
I could feel myself I don't think you can
Been far and wide, but that hole inside
Never really leaves I went away
But I really lost left behind was me
Install in me clear me on my way

Припев:
F#
Ohh oh oh, ohh oh oh
   Am      Em
A Million Miles Away
Ohh oh oh, ohh oh oh
A Million Miles Away
	N.C.
	I can't stay,
	I can't stay
F#
Ohh oh oh, ohh oh oh
   Am      Em
A Million Miles Away

Версия :
Each passing day, every passing face

Seems like such a gloom, I long to be
Home silently lying next to her
Just to get back by her side is all,
All I need to be
I went away what I really lost
Left behind was me
I need to be getting on my way

Solo:
e|----------------------------------------------------------11b|
B|-13^-1412-10-12--14^-1412-10-11Н12-10--11~b-12-12-10Н12----|
G|-14^-1513-11-10--14^-1513-11-10----12----------------------|
D|-------------------------------------------------------------|

e|---------------------11b-11b-11b-11b-11b-11Н12^13------------|
B|-11~b-12-12-12-10Н12------------------------------12^1310---|
G|-------------------------------------------------------------|
D|-------------------------------------------------------------|

Припев:

Outro: F#m

 

 

 
 
 
     
 
 
 

инженеров.netДомашняя страницаНезависимый морской сайтПортал для гитаристовПриколы, юмор, анекдоты

 
обновлен 24.12.2011
в сети с 06.03.2004
 
 
Неофициальный морской сайт Домашняя страница Яндекс цитирования Internet Map Rambler's Top100
Учет посещений на народе

все тексты песен являются собственностью их автора. песени взяты из открытых источников. на сайте размещены с целью ознакомления. при использовании материалов сайта ссылка на сайт обязательна.

по всем вопросам стучитесь в асю или пишите на электропочту

идея, дизайн, редактирование Леха ZaG Загрядский

zagstudio