Аккорды для всех - сайт народных аккордов
 
Аккорды и тексты песен
Guitar Pro табулатуры
Уроки игры на гитаре
Таблица аккордов
Бесплатные программы для музыкантов
Фотографии музыкантов
Видеоклипы
Каталог ссылок
Обратная связь
На главную страницу
 
 
     
 
 

Аккорды, песни, текст, табулатура



Oasis - Married with Children


Intro:

E G# C#m A C B E E G# C#m A C B E
B-----------5h7-5b-7b7-5b-----------------------5-7b7-7b7-5-7b7-5--7b7--5b-|
G----------------------------4--------------4-6----------------------------|
D--------------------------6---4h6h4-2--4^6--------------------------------|


E G# C#m A
There's no need for you to say you're sorry

C B E
B---------5--------7b7-5b------------------------|
G-----4h6------------------------4---------------|
D-4h6------------------------4h6---6-4-6-4-6-4-2-|
Goodbye, I'm going home

E G# C#m A C B E
B-------------------------------------------------5--------7b7-5b-----|
G---------------------------------------------4h6---------------------|
D-----------------------------------------4h6-------------------------|
I don't care no more so don't you worry Goodbye, I'm going home

A E A
B------------5--------------------------------------------7b7-5-------|
G-----4--4h6----------------------------------------------------------|
D-4h6-----------------------------------------------------------------|
I hate the way that even though you know you're wrong

E A
B---------------------------------------------------------------------|
G---------------------4-----------------------------------------------|
D-----------------4h6-----4h6-4-6-4-2---------------------------------|
You say you're right I hate the books you read and

E F# A7
e---------------------------------0---------------------------------------|
B---------------------------0--------0------------------------------------|
G------------------------------3--------3-----------------------------3-0-|
all your friends Your music's shite it keeps me up all night up all night

E G# C#m A C B E
B-----------------------------------------------5h7-5--------7b7-5-----|
G-------------------------------------------4h6------------------------|
D----------------------------------------------------------------------|
There's no need for you to say you're sorry Goodbye, I'm going home

E G# C#m A
B-----------------------------------------------------------------|
G-----4-----------------------------------------------------------|
D-4h6---6---4-6-4-6-4-2-------------------------------------------|
I don't care no more so don't you worry

C B E A E
B--5--7--5--------7b8-7-5----------5--------------------------------------|
G------------------------------4h6----------------------------------------|
D-------------------------------------------------------------------------|
Goodbye, I'm going home I hate the way the you are so sarcastic

A E A
B---7b7-7-5-------------------------------------------------------------|
G----------------------------------------4------------------------------|
D------------------------------------4h6---6--4-6-4-6-4-2---------------|
And you're not very bright You think that

E F#
e--------------------------------------------------0-----------------|
B---------------------------------------------0-------0--------------|
G------------------------------------------------3-------3-----------|
everything you've done's fantastic Your music's shite it keeps me

A7
B---------------------------|
G---------------------------|
D----------------------3-0--|
up all night up all night


Solo:

E G# C#m A C B E E
B----------5---5-7b7-7b7--7-5---------------------------------------------|
G------4-6---6------------------------------------------4-----------------|
D--4^6---------------------------4b4-4b4-4--2-4-2---4h6---6--4-6-4-6-4-2--|

E G# C#m A C B E
E----------------------------------7------------|
B----------5---5-7b7-7b7--7-5--7^9---9-7b-7b-5b-|
G------4-6---6----------------------------------|
D--4^6------------------------------------------|



C#m G#m A E
And it will be nice to be alone for a week or two
C#m G#m A
Then I know that I will be right, right back here with
B A G#m F# B A G#m F#
E---0--------0--------4------2--2-------0--------0--------4-----0---|
B----0--------0--------4-----2---2-------0--------0--------4-----0--|
G----------------------------3--------------------------------------|
D-9--------7--------6--------4--------9--------7--------6-----4-----|
A-9--------7--------6--------4--------9--------7--------6-----4-----|
E-7--------5--------4--------2--------7--------5--------4-----2-----|
you with you with you with you with you with you with you.....


E G# C#m A C B E
B-----------------------------------------7b7-5---5--------7b8r7--------|
G------------------------------------------------6----------------------|
D-----------------------------------------------------------------------|
There's no need for you to say you're sorry Goodbye, I'm going home

E G# C#m A
B---------------------------------------------------------|
G-----4-----4---------------------------------------------|
D-4h6---4h6---4-2-----------------------------------------|
I don't care no more so don't you worry

C B E
Goodbye I'm going home
E------------------------------------------------0--|
B-------5b--7b-----7b7-5b-------------5---5b-----8--|
G----4^6--------------------------4h6---6--------7--|
D-4h6--------------------------------------------6--|
A------------------------------------------------7--|
E------------------------------------------------x--|

 

 

 
 
 
     
 
 
 

инженеров.netДомашняя страницаНезависимый морской сайтПортал для гитаристовПриколы, юмор, анекдоты

 
обновлен 24.12.2011
в сети с 06.03.2004
 
 
Неофициальный морской сайт Домашняя страница Яндекс цитирования Internet Map Rambler's Top100
Учет посещений на народе

все тексты песен являются собственностью их автора. песени взяты из открытых источников. на сайте размещены с целью ознакомления. при использовании материалов сайта ссылка на сайт обязательна.

по всем вопросам стучитесь в асю или пишите на электропочту

идея, дизайн, редактирование Леха ZaG Загрядский

zagstudio